Song name
# A B C D E F G H I J K L M N O P Q R S T U V W X Y Z

Airbourne - Back In The Game tab

#----------------------------------PLEASE NOTE---------------------------------#
#This file is the author's own work and represents their interpretation of the #
#song. You may only use this file for private study, scholarship, or research. #
#------------------------------------------------------------------------------#

Song: Airbourne - Back In The Game
Tab by: Lynneau

Intro - Gtr I (D A D G B E) - 'Rhythm'

 4/4
  Q E Q E S S S S  Q  E H  S S Q E Q Q  S  S  E. E. H
|-----------------------2--------------------------------|
|-----------------------3--------------------------------|
|-7-7-5-5---------------2----------5-5--5x-5x------------|
|-7-7-5-5---------------0--0-2-3-3-5-5--5x-5x-5--3--0----|   2x
|-5-5-3-3-3h5p3p0-<2>---0--0-2-3-3-3-3--3x-3x-5--3--0----|
|---------------------3-0--0-2-3-3------------5--3--0----|

Verse - (D A D G B E)

  E.  E S E E.  E S E E. E S H
|---------------------------------|
|---------------------------------|
|-7---7-----7---7-----5--5--------|
|-7---7-----7---7-----5--5---5----|   3x
|-5---5-----5---5-----3--3---5----|
|---------0---------0--------5----|

  E.  E S E E.  E S E E.  E.  Q  E E
|---------------------------------------|
|---------------------------------------|
|-7---7-----7---7-----5---4---5---------|
|-7---7-----7---7-----5---4---5---------|  Ending to Refrain
|-5---5-----5---5-----3---2---3---------|
|---------0---------0------------5p0----|

Refrain - Gtr I (D A D G B E) - 'Rhythm'

 4/4
  Q E Q E S S S S  Q  E H  S S Q E Q Q  S  S  E. E. H
|-----------------------2--------------------------------|
|-----------------------3--------------------------------|
|-7-7-5-5---------------2----------5-5--5x-5x------------|
|-7-7-5-5---------------0--0-2-3-3-5-5--5x-5x-5--3--0----|
|-5-5-3-3-3h5p3p0-<2>---0--0-2-3-3-3-3--3x-3x-5--3--0----|
|---------------------3-0--0-2-3-3------------5--3--0----|

  Q E Q E S S S S  Q  E H  S S Q E Q Q  S  S  E. E. H
|-----------------------2--------------------------------|
|-----------------------3--------------------------------|
|-7-7-5-5---------------2----------5-5--5x-5x------------|
|-7-7-5-5---------------0--0-2-3-3-5-5--5x-5x-5--3--0----|
|-5-5-3-3-3h5p3p0-<2>---0--0-2-3-3-3-3--3x-3x-5--3--0----|
|---------------------3-0--0-2-3-3------------5--3--0----|

  S S Q E Q Q  S  S  E. E. H
|--------------------------------|
|--------------------------------|
|----------5-5--5x-5x------------|
|--0-2-3-3-5-5--5x-5x-5--3--0----|
|--0-2-3-3-3-3--3x-3x-5--3--0----|
|--0-2-3-3------------5--3--0----|

Song:
Intro
Verse
Refrain
Solo (not included)
Verse
Refrain
Solo
Refrain Variation

More of the Tab INCLUDING the Solos will follow if the Tab gets good response :)
Lynneau
Tap to rate this tab
# A B C D E F G H I J K L M N O P Q R S T U V W X Y Z