Song name
# A B C D E F G H I J K L M N O P Q R S T U V W X Y Z

Airbourne - Running Hot tab

Artist: Airbourne
Album: Runnin Wild
Song: Running Hot

Link to site: www.airbournerock.com/

Standard tuning

Sorry if this is wrong. First Tab. Couldn’t find any Airbourne Tabs so…

Any suggestions? krazz_mounthopemx@hotmail.com

First Drums Then Guitar Comes in

E)------------------------------------------------|
B)------------------------------------------------|
G)-----6-6--6-6--6-6------------------------------|      Repeat 8 times
D)-----6-6--6-6--6-6---6666-----------------------|
A)-----4-4--4-4--4-4---6666-----------------------|
E)---------------------4444-----------------------|

E)-------------------------------------------------------------------------------|
B)-------------------------------------------------------------------------------|
G)-----3-3--3-3---------4-4--4-4-------3-3--3-3----------------------------------|
D)-----3-3--3-3---------4-4--4-4-------3-3--3-3---------2-2--2-2-----------------|
A)-----1-1--1-1---------6-6--6-6-------1-1--1-1---------2-2--2-2-----------------|
E)------------------------------------------------------0-0--0-0-----------------|

That’s all I got so far, and probably will get, but repeat for verses and should be ok. Sounds ok to me

Suggestions?
krazz_mounthopemx@hotmail.com
Tap to rate this tab
# A B C D E F G H I J K L M N O P Q R S T U V W X Y Z