Song name
# A B C D E F G H I J K L M N O P Q R S T U V W X Y Z

Airbourne - Cheap Wine Cheaper Women tab

Cheap Wine and Cheaper Women Solo
Album Running Wild
Tabbed by Brett


e|-----------------------------------------------------------------------------|
B|------10-----10------10------10-13--------10------10------10-----------------|
G|-9h12----9h12----9h12----9h12---------9h12----9h12----9h12----9h12-12-11-----|    x2
D|-----------------------------------------------------------------------------|
A|-----------------------------------------------------------------------------|
E|-----------------------------------------------------------------------------|

e|------------------------------------------------------------------------|
B|------12-------12-------12-------12-15---------12-------12--------------|
G|-11h14----11h14----11h14----11h14---------11h14----11h14----11h14-14-13-|
D|------------------------------------------------------------------------|
A|------------------------------------------------------------------------|
E|------------------------------------------------------------------------|


e|------19-------19-------19-22---------19-------19--------22-22-22-------|
B|-19h22----19h22----19h22---------19h22----19h22----19h22----------------|
G|------------------------------------------------------------------------|
D|------------------------------------------------------------------------|
A|------------------------------------------------------------------------|
E|------------------------------------------------------------------------|
Tap to rate this tab
 
# A B C D E F G H I J K L M N O P Q R S T U V W X Y Z