Song name
# A B C D E F G H I J K L M N O P Q R S T U V W X Y Z

Airstream - Electra Religion Cut tab

Standart (E) tune

|-------------------------|
|-------------------------|
|-------------------------|
|11-------7--11-----------| x4
|-------------------------|
|-------------------------|

|-------------------------|--------------------------|
|-------------------------|--------------------------|
|-------------------------|--------------------------|
|4-4-7-9--11--------------|9-7-6-4--7-4--------------|
|-------------------------|--------------------------|
|-------------------------|--------------------------|

|-------------------------|
|-------------------------|
|-------------------------|
|11-------7--11-----------| x2
|-------------------------|
|-------------------------|

|-------------------------|
|-------------------------|
|-------------------------|
|14---11--9---9-----------| x2
|-------------------------|
|-------------------------|

|-------------------------|--------------------------|
|------5--------7---------|-------5------------------|
|----6--------6-----------|----7----6----------------|
|4-7------4-7-------------|4-7-----------------------| x2
|-------------------------|--------------------------|
|-------------------------|--------------------------|

|-------------------------|--------------------------|
|-------------------------|--------------------------|
|-------------------------|--------------------------|
|4-4-7-9--11--------------|9-7-6-4--7-4--------------|
|-------------------------|--------------------------|
|-------------------------|--------------------------|

|-------------------------|--------------------------|
|------5--------7---------|-------5------------------|
|----6--------6-----------|----7----6----------------|
|4-7------4-7-------------|4-7-----------------------| x4
|-------------------------|--------------------------|
|-------------------------|--------------------------|

|-------------------------|
|-------------------------|
|-------------------------|
|14---11--9---9-----------| x2
|-------------------------|
|-------------------------|

|-------------------------|--------------------------|
|------5--------7---------|-------5------------------|
|----6--------6-----------|----7----6----------------|
|4-7------4-7-------------|4-7-----------------------| x4
|-------------------------|--------------------------|
|-------------------------|--------------------------|

P.s. it's my first tab list, so excuse me, if it isn't correct
Tap to rate this tab
# A B C D E F G H I J K L M N O P Q R S T U V W X Y Z