Song name
# A B C D E F G H I J K L M N O P Q R S T U V W X Y Z

Aisle To Infamy - No Replace tab

Author/Artist: AISLE TO INFAMY
Title: No Replace-Tabbed Professionally 100% correct
Transcribed by: sean matela
Tuning- standard


FIND US AT www.AisleToInfamy.77th.com

------------------------------------------------------------------------------|
------------------------------------------------------------------------------|
------------------------------------------------------------------------------|
-2--2---2-------2----2-------2-----2-------2-----2----------------------------|
-2---2---2---0---0----0---3---3-----3---5---5-----5---------------------------|
-0----0---0-------0----0-------0-----0-------0-----0--------------------------|
 (intro 2x)

------------------------------------------------------------------------------|
------------------------------------------------------------------------------|
------------------------------------------------------------------------------|
-2--2---2-------2----2-------2-----2-------2-----2----------------------------|
-2---2---2---0---0----0---3---0-----0---5---0-----0---------------------------|
-0----0---0-------0----0-------0-----0-------0-----0--------------------------|
(verse) you love me, I loved you, theres nothing you can say or do . . . . .

------------------------------------------------------------------------------|
------------------------------------------------------------------------------|
------------------------------------------------------------------------------|
-2-2-2-2-2--x-x-x--2-2-2-2-2--x-x-x--2-2-2-2-2--x-x-x--2-2-2-2-2--------------|
 2 2 2 2 2  x x x--2-2-2-2-2--x-x-x--2-2-2-2-2--x-x-x--2-2-2-2-2--------------|
-0-0-0-0-0--x-x-x--0-0-0-0-0--x-x-x--0-0-0-0-0--x-x-x--0-0-0-0-0--------------|


--------------------------------------------------------------------------------------|
--------------------------------------------------------------------------------------|
------------------5-5-5-5-5-5-5-5-----------------------------------------------------|
-2-2-2-2-2-2-2-2--5-5-5-5-5-5-5-5--5-5-5-5-5-5-5-5--7-7-7-7-7-7-7-7--9-9-9-9-9-9-9-9--|
-2-2-2-2-2-2-2-2--3-3-3-3-3-3-3-3--5-5-5-5-5-5-5-5--7-7-7-7-7-7-7-7--9-9-9-9-9-9-9-9--|
-0-0-0-0-0-0-0-0-------------------3-3-3-3-3-3-3-3--5-5-5-5-5-5-5-5--7-7-7-7-7-7-7-7--|
(chorus)your gone now, I still see your face. . . . .


--------------------------------------------------------------------------------------|
--------------------------------------------------------------------------------------|
------------------5-5-5-5-5-5-5-5-----------------------------------------------------|
-2-2-2-2-2-2-2-2--5-5-5-5-5-5-5-5--5-5-5-5-5-5-5-5--7-7-7-7-7-7-7-7--9-9-9-9-9-9-9-9--|
-2-2-2-2-2-2-2-2--3-3-3-3-3-3-3-3--5-5-5-5-5-5-5-5--7-7-7-7-7-7-7-7--9-9-9-9-9-9-9-9--|
-0-0-0-0-0-0-0-0-------------------3-3-3-3-3-3-3-3--5-5-5-5-5-5-5-5--7-7-7-7-7-7-7-7--|
(bridge) just go away, I got nothing to say, cant you see I cant replace. . . . .
Tap to rate this tab
# A B C D E F G H I J K L M N O P Q R S T U V W X Y Z