Song name
# A B C D E F G H I J K L M N O P Q R S T U V W X Y Z

Aivolavistys - Nuorallatanssija tab

_________________________________________________
Riffi x2

E-------------------------------------------------|
B-------------------------------------------------|
G-7777777777777777-88-1010-7777777777777777-88-55-|
D-------------------------------------------------|
A-------------------------------------------------|
E-------------------------------------------------|
_________________________________________________

 Kertosäkeistöön asti..
E-------------------------------------|
B-------------------------------------|
G-------------------------------------|
D-9-9-9-9-9-9-9-9-9-9-9-9-9-9-9-7-7-7-|
A-7-7-7-7-7-7-7-7-7-7-7-7-7-7-7-5-5-5-|
E x x x x x x x x x x x x x x x x x x-|
_________________________________________________
Kertosäe (vissii iha perseellää) x2
E----------------------------------------------------|
B----------------------------------------------------|
G-7--7--8-8--7--7-----------7--7--8-8--7--7----------|
D-7--7--8-8--7--7--7-7-7-7--7--7--8-8--7--7--7-7-7-7-|
A-5--5--6-6--5--5--7-7-7-7--5--5--6-6--5--5--7-7-7-7-|
E------------------5-5-5-5-------------------5-5-5-5-|
                   x x x x                   x x x x
__________________________________________________

 Kertosäkeistöön asti..
E-------------------------------------|
B-------------------------------------|
G-------------------------------------|
D-9-9-9-9-9-9-9-9-9-9-9-9-9-9-9-7-7-7-|
A-7-7-7-7-7-7-7-7-7-7-7-7-7-7-7-5-5-5-|
E x x x x x x x x x x x x x x x x x x-|
__________________________________________________

Kertosäe x2
__________________________________________________
Riffi x4
__________________________________________________
Kertosäe x2

__________________________________________________
Tap to rate this tab
# A B C D E F G H I J K L M N O P Q R S T U V W X Y Z