Song name
# A B C D E F G H I J K L M N O P Q R S T U V W X Y Z

Aiza Seguerra - Pagdating Ng Panahon tab


Title: Pagdating Ng Panahon

Artist: Aiza Seguerra

Arranged by: Maestro Jose Valdez

Tabbed by: Ryan R. Gonzales

Location: Rosario, Batangas - Philippines

Tuning: e B G D A D (Drop D)



     Intro:                                                    
     ^                             ^                           
     E      E  E  Q    E  E  E     E  E  E  Q     E  E    E    
E||-----------------------------|-----------------------------|
B||--3------------3----------0--|-----------4h----6--4s--(3)--|
G||--4------5--4----------0-----|--4--5--7--------------------|
D||--------------------0--------|-----------------------------|
A||-----------------------------|-----------------------------|
D||--5--------------------------|--5--------------------------|


  ^                         ^                       
  E  E  E  Q    E  E  E     E  E  E  Q.      E  E   
-------------------------|-------------------------|
--3--------3----------0--|-----------4~------0--1--|
--4--5--4----------0-----|--4--5--7----------0--2--|
----------------0--------|-------------------------|
-------------------------|-------------------------|
--5----------------------|--5----------------------|


  Verse:                                                   
  E      E  E  E  E  E  E  E     E  E  E  E  E  E  E   E   
------------------------------|---------------------------|
--3---------3--3--------0--3--|---------------------------|
--4---------4--------5-----0--|-----------0---------------|
---------0-----------------0--|--------2-----------2p--0--|
------------------------------|-----2-----------2---------|
--5---------------4-----------|--2-----------2------------|


                                                                 ^              
  E  E   E  E  E  Q    E     E  E  E  E  E  E  E  E     E  E  E  Q    E  E  E   
--------------------------|--------------------0--2--|--3--------3----5--2--3--|
--1--1------3----------0--|-----------------0--------|-----------2-------------|
------------------2----0--|-----------0--------------|-----------4-------------|
-----0h--2--4-----4-------|--------0-----------------|--------2----------------|
--3-----------------------|-----2--------2-----------|-----2-------------------|
---------------0----------|--5-----------------4-----|--2----------------------|


                             ^                        
  E  E  E  E  E  E  E  E     E  E  E  E  E  E  E  E   
--------------------0--2--|--3--3--3--3--3--1--------|
-----------3--------2-----|--------------------4--3--|
--------0--------0--------|--------0-----------------|
-----2--------2-----------|-----2--------------1--4--|
--0-----------------------|--3--------------1--------|
--------------------------|--------------1-----------|


                                                                    ^           
  Q    E  E  E   E  E  E     E  E  E  E  E  E  E  E     E  E  E  E  Q    E  E   
--------------------------|--------------------7--5--|-----------3--2----3--5--|
-----------------------0--|--1-----0--1--------------|--------------2----------|
--------------------2-----|--------0--------0--------|--------0-----2----------|
----------0--4p--0--------|-----2--------2-----0-----|-----2-------------------|
-------0------------------|--0-----------------------|--4-----------0----------|
--0-----------------------|--------------------------|-------------------------|


                    ^                                                           
  E  E  E  E  E  E  E  E     E  E  E  E  Q    E  E     E  E  E  E  E  E  E  E   
--------------------2-----|-------------------------|--------------------------|
--------------------3--3--|-------------------0--1--|--3-----3--3--------0--3--|
-----------0--2-----2-----|-------------------0--2--|--4-----4--------5-----0--|
--------4--------4--------|--------0----------------|-----0-----------------0--|
-----0--------------------|-----0-------------------|--------------------------|
--0-----------------------|--4--------2--0----------|--5-----------4-----------|


  E  E  E  E  E  E  E   E     E  E   E  E  E  Q    E   
---------------------------|--------------------------|
---------------------------|--1--1------3----------0--|
-----------0---------------|------------------2----0--|
--------2-----------2p--0--|-----0h--2--4-----4-------|
-----2-----------2---------|--3-----------------------|
--2-----------2------------|---------------0----------|


                                      ^                                         
  E  E  E  E  E  E  E  E     E  E  E  Q    E  E  E     E  E  E  E  E  E  E  E   
--------------------0--2--|--3--------3----5--2--3--|--------------------0--2--|
-----------------0--------|-----------2-------------|-----------3--------2-----|
-----------0--------------|-----------4-------------|--------0--------0--------|
--------0-----------------|--------2----------------|-----2--------2-----------|
-----2--------2-----------|-----2-------------------|--0-----------------------|
--5-----------------4-----|--2----------------------|--------------------------|


  ^                                                   
  E  E  E  E  E  E  E  E     Q    E  E  E   E  E  E   
--3--3--3--3--3--1--------|--------------------------|
--------------------4--3--|-----------------------0--|
--------0-----------------|--------------------2-----|
-----2--------------1--4--|----------0--4p--0--------|
--3--------------1--------|-------0------------------|
--------------1-----------|--0-----------------------|


                                         ^                                      
  E  E  E  E  E  E  E  E     E  E  E  E  Q    E  E     E  E  E  E  E  E  E  E   
--------------------7--5--|-----------3--2----3--5--|--------------------7--8--|
--1-----0--1--------------|--------------2----------|--------------------------|
--------0--------0--------|--------0-----2----------|-----------0--2-----7--8--|
-----2--------2-----0-----|-----2-------------------|--------4--------0--------|
--0-----------------------|--4-----------0----------|-----0--------------------|
--------------------------|-------------------------|--0-----------------------|


                            Chorus:                       
              ^                                           
  E  E  E  E  Q    E  E     E       E  E  E  E  E  E  E   
-------------------3--5--|--7----------------------8--7--|
-------------------------|-------------0-----------------|
--------7----------------|-------------7--7--------------|
-----7--------0----------|----------0-----------0--------|
--6--------6-------------|-------------------------------|
--------------0----------|--5----------------5-----------|


  E  E  E  E  E  E  E  E     E  E  E  E  E  E  E  E   
--5--------------2--2--3--|--5-----5--7-----5-----3--|
-----------3--------------|--------0-----------7--0--|
--------2-----------------|--------------------------|
-----0--------------0-----|-----4--------------------|
--------------------------|--2-----------6-----------|
--4-----------0-----------|--------------------------|


  E  E  E  E  E  E  E  E     E  E  E  E  E  Q    E     E  E  E  E  E  E  E  E   
-----------------0--0--2--|--3-----3--3-----0-------|--------5--3--------------|
--------0-----------0-----|-----------1-----3----3--|--------3-----------0--1--|
-----0--------------0-----|-----------0-----2-------|--------------------0--2--|
-----------2--0-----------|-----0--2-----0----------|-----4--------------------|
--------------------------|--3----------------------|--2--------------2--------|
--2-----------------------|-------------------------|--------------2-----------|


                                                ^      
  E  E  E  E  E  E  E  E     E  E  E  E   E  E  E  E   
-----------7-----3-----5--|---------------------3--5--|
--------1--------5-----7--|---------------------------|
--------2-----------------|---------------------5-----|
-----2--------------------|--------0--2s--4--0--------|
--0-----------0-----4-----|-----0---------------------|
--------------------------|--0------------------0-----|


  E  E  E  E  E  E  E  E     E  E  E  E  E  E  E  E   
--7-----------------8--7--|--5--------------2--2--3--|
--------0-----------------|-----------3--------------|
--------7--7--------------|--------2-----------------|
-----0-----------0--------|-----0--------------0-----|
--------------------------|--------------------------|
--5-----------5-----------|--4-----------0-----------|


  E  E  E  E  E  E  E  E     E  E  E  E   E  E  E  E   
--5-----5--7-----5-----3--|---------------------------|
--------0-----------7--0--|--------3------------0-----|
--------------------------|-----0------------0--------|
-----4--------------------|-----------2p--0-----------|
--2-----------6-----------|------------------------2--|
--------------------------|--2------------------------|


                    ^        ^                        
  E  E  E  E  E  E  E  E     E  E  E  E  E  E  E  E   
--0-----2--3--------2--0--|--------5--3--------3--5--|
--------1-----------1-----|--3-----------------------|
-----0--------------2-----|--------------------4-----|
--------------------------|-----4--------------2-----|
--3--------------0--------|--2--------------2--------|
--------------0-----------|--------------2-----------|


                    ^                               
  E  E  E  E  E  E  E  E     E  E  E  Q    E  Q     
--7--------5--------3--2--|--3---------------------|
-----------5--------1-----|-----------0-------0----|
--------5-----------2-----|--------0----------0----|
-----5--------------0-----|-----0----------0-------|
--0--------------0--------|------------------------|
--------------0-----------|--5---------------------|


   Bridge:                                                  
   E      E  E  E   E  E  E  E     E  E  E  E  E  E  E  E   
---7---------0--0---7-----8--7--|--7-----5-----------------|
-------------0------------0-----|--------------------7-----|
----------0------------0--------|-----------7-----7-----7--|
--------------------------------|--------0-----0-----------|
--------------------------------|-----0--------------------|
--10---------------10-----------|--0-----------------------|


   E  E   E  E  E  E  E  E     E  E  E  E  E  E  E  E   
-------------7--------------|--------------------------|
--10-----10-----------7--8--|--------------------0-----|
----------7-----------------|--------9--------0--------|
------7------------7--------|-----9-----------------0--|
----------------9-----------|--7--------7--5-----------|
---9------------------------|--------------------------|


     ^           ^                                    
  E  E  E  E  E  E  E  E     E  E  E  E  E  E  E  E   
-----3-----3-----3--7--5--|-----3--------------0-----|
--------7--------5--------|-----------------0--------|
-----5-----------5--------|-----------4--------------|
--------------------------|--------2-----0-----------|
--3-----------3-----------|-----2--------------------|
--------------------------|--2--------------------9--|


       ^               ^    ^                              
   E   E   E   E   E   Q    E     E  E  E  E  E  E  E  E   
----------------------------5--|-----------------------5--|
------12--10--12------13----7--|--------------------8-----|
-------0-------0-------0----5--|-----------5-----5--------|
-------------------------------|--------0-----0-----------|
-------------------------------|-----0--------------------|
--10--------------10-----------|--0-----------------------|


  Chorus:                                                  
  E       E  E  E  E  E  E  E     E  E  E  E  E  E  E  E   
--7----------------------8--7--|--5--------------2--2--3--|
-------------0-----------------|-----------3--------------|
-------------7--7--------------|--------2-----------------|
----------0-----------0--------|-----0--------------0-----|
-------------------------------|--------------------------|
--5----------------5-----------|--4-----------0-----------|


  E  E  E  E  E  E  E  E     E  E  E  E  E  E  E  E     E  E  E  E  E  Q    E   
--5-----5--7-----5-----3--|-----------------0--0--2--|--3-----3--3-----0-------|
--------0-----------7--0--|--------0-----------0-----|-----------1-----3----3--|
--------------------------|-----0--------------0-----|-----------0-----2-------|
-----4--------------------|-----------2--0-----------|-----0--2-----0----------|
--2-----------6-----------|--------------------------|--3----------------------|
--------------------------|--2-----------------------|-------------------------|


  E  E  E  E  E  E  E  E     E  E  E  E  E  E  E  E   
--------5--3--------------|-----------7-----3-----5--|
--------3-----------0--1--|--------1--------5-----7--|
--------------------0--2--|--------2-----------------|
-----4--------------------|-----2--------------------|
--2--------------2--------|--0-----------0-----4-----|
--------------2-----------|--------------------------|


                     ^                                 
  E  E  E  E   E  E  E  E     E  E  E  E  E  E  E  E   
---------------------3--5--|--7-----------------8--7--|
---------------------------|--------0-----------------|
---------------------5-----|--------7--7--------------|
--------0--2s--4--0--------|-----0-----------0--------|
-----0---------------------|--------------------------|
--0------------------0-----|--5-----------5-----------|


  E  E  E  E  E  E  E  E     E  E  E  E  E  E  E  E   
--5--------------2--2--3--|--5-----5--7-----5-----3--|
-----------3--------------|--------0-----------7--0--|
--------2-----------------|--------------------------|
-----0--------------0-----|-----4--------------------|
--------------------------|--2-----------6-----------|
--4-----------0-----------|--------------------------|


                                                ^      
  E  E  E  E   E  E  E  E     E  E  E  E  E  E  E  E   
---------------------------|--0-----2--3--------2--0--|
--------3------------0-----|--------1-----------1-----|
-----0------------0--------|-----0--------------2-----|
-----------2p--0-----------|--------------------------|
------------------------2--|--3--------------0--------|
--2------------------------|--------------0-----------|


  ^                 ^                                 
  E  E  E  E  E  E  E  E     E  E  E  E  E  E  E  E   
--------5--3--------3--5--|--7-----------------------|
--3-----------------------|--------------------------|
--------------------4-----|-----------5--------------|
-----4--------------2-----|--------5-----9--7--5--4--|
--2--------------2--------|-----7--------0-----------|
--------------2-----------|--7-----------------------|


  ^                                                   
  E  E  E  E  E  E  E  E     E  E  E  E  E  E  E  E   
--5-----------------3--2--|--3-----------------------|
--7-----------------------|--------3--0--------3--0--|
--5--------5--4--2-----2--|-----4-----------2--------|
--------0-----------4-----|--------------------------|
-----0--------------------|--------------------------|
--0-----------------------|--5-----------4-----------|


                             ^                       
  E  E  E  E  E  E  E  E     E  E  E  Q    E  E  E   
--------------------------|-------------------------|
--------1-----------------|--3--------3----------0--|
-----0--------------0-----|--4--5--4----------0-----|
-----------2-----4-----0--|----------------0--------|
--------------------------|-------------------------|
--2-----------0-----------|--5----------------------|


  ^                             ^                       
  E  E  E  Q     E  E    E      E  E  E  Q    E  E  E   
-----------------------------|-------------------------|
-----------4h----6--4s--(3)--|--3--------3----------0--|
--4--5--7--------------------|--4--5--4----------0-----|
-----------------------------|----------------0--------|
-----------------------------|-------------------------|
--5--------------------------|--5----------------------|


  ^                                       ^                            
  E  E  E  Q    E  Q        E  S E.  Q    Q.        W                  
-------------------------|----------------5------|--L----------------||
-----------4----6--4~----|-----------7----7------|--L----------------||
--4--5--7----------------|-----------------------|-------------------||
-------------------------|-------9--------9------|--L----------------||
-------------------------|-----5----------5------|--L----------------||
--5----------------------|--5-------------5------|--L----------------||




Duration Legend
---------------
W - whole
H - half
Q - quarter
E - 8th
S - 16th
T - 32nd
X - 64th
. - note dotted
|-n-|  - n-tuplets


Tablature Legend
----------------
L - tied note
h - hammer on
p - pull off
s - legato slide
~ - vibrato
^ - brush up
Tap to rate this tab
# A B C D E F G H I J K L M N O P Q R S T U V W X Y Z