Song name
# A B C D E F G H I J K L M N O P Q R S T U V W X Y Z

Aiza Seguerra - Para Lang Sayo tab

Aiza Seguerra - Para lang Sayo
(tabbed by: Novy John Albancia)
based on guitar cover: http://www.youtube.com/watch?v=lLIg8FSDinI
CAPO on 5th fret

INTRO
e|-------------------0-------------------------------3-3---2---0------0h2----|
B|--0-1-3-3-----3--3---3----3----3----0------1---1---3-3-3-3---3---3--3------|
G|----------0-----0--------2---------------0-0---0-----------2---2-----------|
D|------------2-----------0-----0----0----2----2-----0-----0----------0------|
A|--------3--------------2-----2----2----0-----------------------------------|
E|----------------------------0----0-----------------------------------------|


VERSE
e|--------------------1-------------------0----------------------------------|
B|------0--------0----0----------3---3----3------0--0---0----0---------------|
G|-----2-2---------2--2--2-------0---0----2------0-0-------------------------|
D|----0----0----0-----0---0----2---2----0-0------------2----2----------------|
A|----------------------------3--------2-------2------2----0-----------------|
E|--3---------3-----------------------------0-0------0----2------------------|

                                     
e|-------------------1--------------------------------0----------------------|
B|-----0----0------0-0--0---------3---3-----3------0--0------0----3----------|
G|-----2-2---2----2--2---2--------0---0-----2------0-------------2-----------|
D|---0-----0-----0---0---------2----------0---------------------0------------|
A|--0----------------------0-3------3----2--------2---------2----------------|
E|-3------------3-----------------------------0--0---------0-----------------|

                                                (strum on this part)
e|--------------------0---------------0------0-----3-----0--2--0-------------|
B|-----3-3----3--3----1-----3----3----3------3-----1-----3--3--3-------------|
G|-----0-0----2--2----0----0----2-----0------2-----0---2-2--2--2-------------|
D|---2------0-------2-2---2----0----2-2----0-0---2-2--0--0--0--0-------------|
A|--3---3--2----2--0-----0----2----3------2-----0----------------------------|
E|---------------------------------------------------------------------------|

CHORUS
e|----------0------0---------0------------0------------0---------------------|
B|-----3-3--2------3-----3----3-----3--3--2-------3-3--3-----3---------------|
G|-----0-0--0------2----2-----------0--0--0-------2-2--2-----2---------------|
D|---2------2----0-0---0----0-----2-------2-----0------0----0----------------|
A|--3----3------2-----2----2-----3-----3-----0h2----2------2-----------------|
E|-------------------------------------------------------0-------------------|


e|-----0-----0------------------------------0--------0h2---------------------|
B|-----1-----3----0----0----0------1--0-----3-----3--3-------3---------------|
G|-----0-----2----0--------2-------0--------2---2-2--2-----------------------|
D|---2-2---0-0--------2---0---------------0-0--0-----0------0----------------|
A|--0-----2------2---2---2-----0-0---0---2-----------------0-----------------|
E|--------------0---0--------------------------------------------------------|

Instrumental
e|--------0-0---------------------------------3---3---2----2----2------------|
B|-----3-----3----3------3-----0-----1---1----3---3---3-----3---3------------|
G|----0--0-------2------------------0--0--0---------------2--2--2------------|
D|---2----------0------0-----0-----2----2--2--0-0---0-0--0------0------------|
A|--3----------2------2-----2-----0------------------------------------------|
E|-------------------0-----0-------------------------------------------------|


e|--------------------1-------------------0----------------------------------|
B|------0--------0----0----------3---3----3------0--0---0----0---------------|
G|-----2-2---------2--2--2-------0---0----2------0-0-------------------------|
D|----0----0----0-----0---0----2---2----0-0------------2----2----------------|
A|----------------------------3--------2-------2------2----0-----------------|
E|--3---------3-----------------------------0-0------0----2------------------|


e|-------------------1--------------------------------0----------------------|
B|-----0----0------0-0--0---------3---3-----3------0--0------0----3----------|
G|-----2-2---2----2--2---2--------0---0-----2------0-------------2-----------|
D|---0-----0-----0---0---------2----------0---------------------0------------|
A|--0----------------------0-3------3----2--------2---------2----------------|
E|-3------------3-----------------------------0--0---------0-----------------|


                                                (strum on this part)
e|--------------------0---------------0------0-----3-----0--2--0-------------|
B|-----3-3----3--3----1-----3----3----3------3-----1-----3--3--3-------------|
G|-----0-0----2--2----0----0----2-----0------2-----0---2-2--2--2-------------|
D|---2------0-------2-2---2----0----2-2----0-0---2-2--0--0--0--0-------------|
A|--3---3--2----2--0-----0----2----3------2-----0----------------------------|
E|---------------------------------------------------------------------------|

CHORUS

cadd9                   E7sus4       
Para sa'yo ako'y iibig pang muli
        Cadd9             E7sus4
Dahil sa'yo ako'y iibig nang muli
           Am7   G6          Em
Ang aking puso'y pag-ingatan mo
      Em7 Am7            G6        D
dahil sa ito’y muling magmamahal sa’yo
             Cadd9
para lang sa’yo


BRIDGE

     E7sus4  Am7         G6-Cadd9       
Di na ako muling mag-iisa
      E7sus4 D  
Ngayon ikaw ay nandito na

(repeat Chorus)

                                                       G
e|----0--------------------------------0-----2h3p2-----3---------------------|
B|--3----3---------3---------3-----3----0----3---------3---------------------|
G|--------0-------2--2------2-----0------0---2---------0---------------------|
D|---------2-----0----0----0-----2---2-------0---------0---------------------|
A|--3----------2----------2-----0----------------------2---------------------|
E|-----------------------------------------------------3---------------------|






CHORDS:

  Cadd9           E7sus4           Am7             G6              Em               D
e|--0---|       e|--0---|       e|--0---|       e|--0---|       e|--0---|       e|--2---|       
B|--3---|       B|--3---|       B|--1---|       B|--3---|       B|--0---|       B|--3---|
G|--0---|       G|--2---|       G|--0---|       G|--0---|       G|--0---|       G|--2---|
D|--2---|       D|--0---|       D|--2---|       D|--0---|       D|--2---|       D|--0---|
A|--3---|       A|--2---|       A|--0---|       A|--2---|       A|--2---|       A|--0---|
E|--0---|       E|--0---|       E|--0---|       E|--0---|       E|--0---|       E|--0---|


h- hammer on
p- pull off
Tap to rate this tab
# A B C D E F G H I J K L M N O P Q R S T U V W X Y Z