Song name
# A B C D E F G H I J K L M N O P Q R S T U V W X Y Z

Aizat Af5 - Hanya Kau Yang Mampu tab

AIZAT AF5 - Hanya Kau Yang Mampu (solo)



Key:

^  - bend
^^ - full bend
h  - hammer on
p  - pull off
r  - release bend
/  - slide down
\  - slide up
~  - vibrato
() - finger tap




      G#m    C#m
Aku cinta oohhhhhh...



SOLO:

         E                 B                G#m              C#m
e|-----------------------------------------------------------------------|
B|-----------------------------------------------------------------------|
G|--9-11-13~------13/14-13-13-14-11~----8-9-11~--13/14-13-11-11-13-9~----|
D|-------------11--------------------------------------------------------|
A|-----------------------------------------------------------------------|
E|-----------------------------------------------------------------------|


    A           E              G#m             C#m
e|-----------------------------------------12--14~----11-9-11~--------|
B|---------------------------------12--14-----------------------------|
G|-----------13--------14--13--14-------------------------------------|
D|-----11-14----11~---------------------------------------------------|
A|--12----------------------------------------------------------------|
E|--------------------------------------------------------------------|


      A
Harusnya takkan...



Guitar Tabs by rizalwahap
Tap to rate this tab
# A B C D E F G H I J K L M N O P Q R S T U V W X Y Z