Song name
# A B C D E F G H I J K L M N O P Q R S T U V W X Y Z

Aizo - Robot Ka Ba tab

Help us improve GuitareTab! Take a short survey!
Song: Robot Ka Ba?
Artist: Aizo
Album: Nababaliw na ang Payaso


Tabber: Michael -chico- Rombawa
for friendstertseness : mykro85@yahoo.com
for myspacers & neatvibers: chicoholics@yahoo.com


ang ganda nitong kanta, happy song nd pede mga emo, hehe^-^....
ang masasabi ko lang Robot Ka Ba? o Robot ba Kau?..

*   pm = palm mute
*   h = hammer
*   v = down stroke
*   ^ = up stroke


Intro

e---------6---6---6---6-----4---4---4---4--------|
B-------7---7-------7-----5---5-------5----------|
G---------------8-----------------6--------------|
D------------------------------------------------| x4
A------------------------------------------------|
D------------------------------------------------|

Riff01
G1
e---------7-5---7-5-7---------5-3---5-3-5--------|
B------7--------------5----3--------------5------|
G------------------------------------------------|
D------------------------------------------------| x4
A------------------------------------------------|
D------------------------------------------------|

Riff02 (pakinggan niyo nalang ung strum nito para makuha niyo.)
G2
           v  ^^^ v^       v  ^^^ v^
e----------6--666-66-------4--444-44-------------|
B----------7--777-77-------5--555-55-------------|
G------------------------------------------------|
D------------------------------------------------| x4
A------------------------------------------------|
D------------------------------------------------|

Verse1
e-------6-----6-4----4-6-----6-----6-4-----------|
B-------7-----7-5----5-7-----7-----7-5-----------|
G-------8-----8-6----6-8-----8-----8-6-----------|
D------------------------------------------------| 
A------------------------------------------------|
D------------------------------------------------|
Naglalakad ka sa kalye, nababasa ng ulan
Feeling mo kakalawangin ka, eh hindi naman!

Riff03
G2      
e----------6--666-66-------4--444-44-------------|
B----------7--777-77-------5--555-55-------------|
G------------------------------------------------|
D------------------------------------------------| x3
A------------------------------------------------|
D------------------------------------------------|
            .........p.m...........
Verse2
G1 & G2
e----------6--666-66-------4--444-44-------------|
B----------7--777-77-------5--555-55-------------|
G------------------------------------------------|
D------------------------------------------------| x8
A------------------------------------------------|
D------------------------------------------------|
            .........p.m...........
Umiinom ka ng gatas,na may kahalong gas
Naglalaklak ka ng langis, lumalabas na pawis
Ang 'yong mata, namumula sa galit
Ang 'yong katawa'y namimilipit
Bakit mo ba ako pinipilit
Kung ako'y alimango, ika'y aking sinipit
Buhay mo'y walang kakulay-kulay
Hinde ka ba nagsasawa't nauumay
Kulang na lang tubuan ka ng sungay
Tumigil ka na nga't umuwi na lang sa bahay
Sumasayaw ka ng mag-isa, 
Lalo ka lang nagmumukhang tanga
Kasingtigas ng bakal ang ulo mo
Hoy gago! robot ka ba?

Chorus
G1 & G2
e----------6--666-66-------4--444-44-------------|
B----------7--777-77-------5--555-55-------------|
G----------8--888-88-------6--666-66-------------|
D------------------------------------------------| x4
A------------------------------------------------|
D------------------------------------------------|
Robot ka ba? robot ka ba?
Robot ka ba? robot ka ba?
Robot ka ba? robot ka ba?
Robot ba kayo? robot ba kayo?
Robot ka ba? robot ka ba?
Robot ka ba? robot ka ba?
Robot ka ba? robot ka ba?
Ako hinde...           

Riff04
e--------6-----6------4---4----------------------|
B----------7-----7------5---5--------------------|
G------7-----7------5----------------------------|
D------------------------------------------------| x2
A------------------------------------------------|
D------------------------------------------------|

Riff01
G1
e---------7-5---7-5-7---------5-3---5-3-5--------|
B------7--------------5----3--------------5------|
G------------------------------------------------|
D------------------------------------------------| x4
A------------------------------------------------|
D------------------------------------------------|

Riff02 (pakinggan niyo nalang ung strum nito para makuha niyo.)
G2
           v  ^^^ v^       v  ^^^ v^
e----------6--666-66-------4--444-44-------------|
B----------7--777-77-------5--555-55-------------|
G------------------------------------------------|
D------------------------------------------------| x4
A------------------------------------------------|
D------------------------------------------------|

Verse3
e-------6-----6-4----4-6-----6-----6-4-----------|
B-------7-----7-5----5-7-----7-----7-5-----------|
G-------8-----8-6----6-8-----8-----8-6-----------|
D------------------------------------------------| 
A------------------------------------------------|
D------------------------------------------------|
Bawat yapak mo sa lupa, nabibiyak ang daan
Feeling mo anggaan-gaan mo, eh hindi naman!

Riff03
G2      
e----------6--666-66-------4--444-44-------------|
B----------7--777-77-------5--555-55-------------|
G------------------------------------------------|
D------------------------------------------------| x3
A------------------------------------------------|
D------------------------------------------------|
            .........p.m...........


Verse4
G1 & G2
e----------6--666-66-------4--444-44-------------|
B----------7--777-77-------5--555-55-------------|
G------------------------------------------------|
D------------------------------------------------| x8
A------------------------------------------------|
D------------------------------------------------|
            .........p.m...........

Magdamag nakaharap sa pc, magdamag ka ring nagyoyosi
Magdamag ka ring nagkakape, pati ipis ay iyong kinakarate!
Bakit ba ang hilig mong magsingit-singit
Bakit gusto mo laging paulit-ulit
Hindi ka naman sour, hindi ka naman sweet
Tumigil ka na nga't wag kang makulit
Araw-araw ka na lang kumakanta
Ibang diyos ang iyong sinasamba
Gabi-gabi iba't ibang sumasampa
Kung alam mo lang, hindi sila sumasaya
Hindi mo ba alam na wala kang kwenta
Ba't 'di ka na lang mangholdap sa philcoa
Tumbling ka nang tumbling sa may buhangin
Robot ka ba?


Chorus
G1 & G2
e----------6--666-66-------4--444-44-------------|
B----------7--777-77-------5--555-55-------------|
G----------8--888-88-------6--666-66-------------|
D------------------------------------------------| x4
A------------------------------------------------|
D------------------------------------------------|
Robot ka ba? robot ka ba?
Robot ka ba? robot ka ba?
Robot ka ba? robot ka ba?
Robot ba kayo? robot ba kayo?
Robot ka ba? robot ka ba?
Robot ka ba? robot ka ba?
Robot ka ba? robot ka ba?
Ako hinde...

Riff04
e--------6-----6------4---4----------------------|
B----------7-----7------5---5--------------------|
G------7-----7------5----------------------------|
D------------------------------------------------| x2
A------------------------------------------------|
D------------------------------------------------|

Riff01
G1
e---------7-5---7-5-7---------5-3---5-3-5--------|
B------7--------------5----3--------------5------|
G------------------------------------------------|
D------------------------------------------------| x4
A------------------------------------------------|
D------------------------------------------------|

Riff02 (pakinggan niyo nalang ung strum nito para makuha niyo.)
G2
           v  ^^^ v^       v  ^^^ v^
e----------6--666-66-------4--444-44-------------|
B----------7--777-77-------5--555-55-------------|
G------------------------------------------------|
D------------------------------------------------| x4
A------------------------------------------------|
D------------------------------------------------|


Verse5
e-------6-----6-4----4-6-----6-----6-4-----------|
B-------7-----7-5----5-7-----7-----7-5-----------|
G-------8-----8-6----6-8-----8-----8-6-----------|
D------------------------------------------------| 
A------------------------------------------------|
D------------------------------------------------|
Pumunta ka sa laot, ikaw ang nagsasagwan
Feeling mo marunong ka, eh hindi naman!


Riff03
G2      
e----------6--666-66-------4--444-44-------------|
B----------7--777-77-------5--555-55-------------|
G------------------------------------------------|
D------------------------------------------------| x3
A------------------------------------------------|
D------------------------------------------------|
            .........p.m...........

Verse6
e-------6-----6-4----4-6-----6-----6-4-----------|
B-------7-----7-5----5-7-----7-----7-5-----------|
G-------8-----8-6----6-8-----8-----8-6-----------|
D------------------------------------------------| 
A------------------------------------------------|
D------------------------------------------------|
Ang kwentong ito'y tungkol sa isang tao
Na walang kinikilala kahit na sino
Ipis, kabayo, baboy o tsonggo
Hindi patatawarin kahit pa pabo


Verse7
G1 & G2
e----------6--666-66-------4--444-44-------------|
B----------7--777-77-------5--555-55-------------|
G------------------------------------------------|
D------------------------------------------------| x8
A------------------------------------------------|
D------------------------------------------------|
            .........p.m...........
Nakasuot siya ng salamin, kung saan-saan tumitingin
'tinuring na iskolar pa mandin
Ngunit hanggang sampu lang ang kayang bilangin!
Hindi kami rappers, hindi kami boyband!
Kami lang po ay nagkakantahan
Kung kayo po ay naiingayan, pwede bang umalis na lamang!
Kung naiinis na po kayo, pwede bang umalis na lamang dito
Anong pakialam ko, ewan ko sa inyo
Robot ba kayo!

Chorus
G1 & G2
e----------6--666-66-------4--444-44-------------|
B----------7--777-77-------5--555-55-------------|
G----------8--888-88-------6--666-66-------------|
D------------------------------------------------| x4
A------------------------------------------------|
D------------------------------------------------|
Robot ka ba? robot ka ba?
Robot ka ba? robot ka ba?
Robot ka ba? robot ka ba?
Robot ba kayo? robot ba kayo?
Robot ka ba? robot ka ba?
Robot ka ba? robot ka ba?
Robot ka ba? robot ka ba?
Ako hinde...

Adlib:(Nxt tym nalang sakit na batok ko ey)


e2ng kantang robot ka ba? galing po sa album na nababaliw na ang payaso ng Aizo track 2/11
soundtrack din e2 sa isang episode ng barkada trip sa studio23... nd ko lang matandaan
kung anung scene un..... 




****KUNG MAY TANONG KAU?*****COMMENT?****

just free to send me a message in myspace or friendster
but, add me first. para maka send kau ng message. Oh ha!

friendster - mykro85@yahoo.com

myspace - chicoholics@yahoo.com



Related for Robot Ka Ba tab