Song name
# A B C D E F G H I J K L M N O P Q R S T U V W X Y Z

Aizo - Barkadatrip tab

Title: Trip na Trip(Barkada Trip, Oh ha!)
Artist: Aizo
Album: nababaliw na ang payaso(chico)
Copy year: 2006

Tabber: Michael -chico- Rombawa
for friendstertseness : mykro85@yahoo.com
for myspacers & neatvibers: chicoholics@yahoo.com



*									     
*   ~  - let ring (pakinggan nu nalang ung kanta kung ilang kaskas! hehe)    
*   / - slide								     
*   x - mute		                                                     
*   h - hammer						                    
*									     


Intro 

wait for the drummer then 
G1
e|------------------------------------------------------|
B|------------------------------------------------------|
G|----------555-----777--77--7/9---9/11-----------------|
D|----55----555-----777--xx--x/x---x/x------------------|  x4
A|----55----333-----555--55--5/7---7/9------------------|
D|----33------------------------------------------------|

G2
e|----------------------------------------|
B|----------------------------------------|
G|----------555-----777-------------------|
D|----55----555-----777-------------------|  x4
A|----55----333-----555-------------------|
D|----33----------------------------------|


Verse 
G1
e|-------------------------|
B|-------------------------|
G|-------------------------|
D|----55555555-------------|  
A|----55555555-------------|
D|----33333333-------------|

Tatawa nang tatawa 

e|-------------------------|
B|-------------------------|
G|--------55555555---------|
D|--------55555555---------|  
A|--------33333333---------|
D|-------------------------|

Magdamag hanggang umaga

e|------------------------------|
B|------------------------------|
G|-------7h7h7h7h7h7h7h7--------|
D|-------7h7h7h7h7h7h7h7--------|  
A|-------5h5h5h5h5h5h5h5--------|
D|------------------------------|

Maghahabulan 

e|------------------------------|
B|------------------------------|
G|----------9h9h9h9h9h9h9h9-----|
D|----------9h9h9h9h9h9h9h9-----|  
A|----------7h7h7h7h7h7h7h7-----|
D|------------------------------|

Hanggang sa dulo ng mundo

e|-------------------------|
B|-------------------------|
G|-------------------------|
D|----55555555-------------|  
A|----55555555-------------|
D|----33333333-------------|

Matutulog nang matutulog

e|-------------------------|
B|-------------------------|
G|--------55555555---------|
D|--------55555555---------|  
A|--------33333333---------|
D|-------------------------|

Magigising lang 'pag ako'y nahulog

e|------------------------------|
B|------------------------------|
G|-------7h7h7h7h7h7h7h7--------|
D|-------7h7h7h7h7h7h7h7--------|  
A|-------5h5h5h5h5h5h5h5--------|
D|------------------------------|

Kakain ng papel, ako'y isang anghel

e|------------------------------|
B|------------------------------|
G|----------9h9h9h9h9h9h9h9-----|
D|----------9h9h9h9h9h9h9h9-----|  
A|----------7h7h7h7h7h7h7h7-----|
D|------------------------------|

Mag-aabang ng balyenang kahel

G2
e|---------------------------|
B|------7/9-9---7-7----------|
G|-------------------9-9-9-9-|
D|---------------------------|  x2
A|---------------------------|
D|---------------------------|

e|---------------------------------|
B|------7h7h7h7h7h7h7h7------------|
G|------xhxhxhxhxhxhxhx------------|
D|---------------------------------|  
A|---------------------------------|
D|---------------------------------|

e|---------------------------------|
B|---------------------------------|
G|------7-7-7-7/9-9-9--------------|
D|------x-x-x-x/x-x-x--------------|  pa ulit-ulit lang
A|------5-5-5-5/7-7-7--------------|
D|---------------------------------|


Interlude 
Riff01
G1
e|-----------------------------------------------------|
B|-----------------------------------------------------|
G|----------555-----777--77--7/9---9/11----------------|
D|----55----555-----777--xx--x/x---x/x-----------------|  x4
A|----55----333-----555--55--5/7---7/9-----------------|
D|----33-----------------------------------------------|

G2
e|----------------------------------------|
B|----------------------------------------|
G|----------555-----777-------------------|
D|----55----555-----777-------------------|  x4
A|----55----333-----555-------------------|
D|----33----------------------------------|


Refrain 1
G1 & G2
e|----------------------------------------------------|
B|----------------------------------------------------|
G|----------------55555555----77777777---55555555-----|
D|----55555555----55555555----77777777---55555555-----|  
A|----55555555----33333333----55555555---33333333-----|
D|----33333333----------------------------------------|

(food trip!) kakain nang kakain
(sound trip!) makikinig kayo sa amin
(laugh trip!) tatawa nang tatawa
(barkada trip!) kapag kasama ang barkada


Refrain 2

G1
e|-------------------------|
B|-------------------------|
G|-------------------------|
D|----55555555-------------|  
A|----55555555-------------|
D|----33333333-------------|

Trip ko yan, trip ko yun, trip ko 'tong lahat

e|-------------------------|
B|-------------------------|
G|--------55555555---------|
D|--------55555555---------|  
A|--------33333333---------|
D|-------------------------|

Trip na trip tumambay at magskateboard sa tapat

e|------------------------------|
B|------------------------------|
G|-------7h7h7h7h7h7h7h7--------|
D|-------7h7h7h7h7h7h7h7--------|  
A|-------5h5h5h5h5h5h5h5--------|
D|------------------------------|

Kahit ano pang trip, basta wag ka lang maidlip

e|------------------------------|
B|------------------------------|
G|----------9h9h9h9h9h9h9h9-----|
D|----------9h9h9h9h9h9h9h9-----|  
A|----------7h7h7h7h7h7h7h7-----|
D|------------------------------|

Kahit ano pang trip, ito ang trip na trip!

G2
e|---------------------------|
B|------7/9-9---7-7----------|
G|-------------------9-9-9-9-|
D|---------------------------|  x2
A|---------------------------|
D|---------------------------|

e|---------------------------------|
B|------7h7h7h7h7h7h7h7------------|
G|------xhxhxhxhxhxhxhx------------|
D|---------------------------------|  
A|---------------------------------|
D|---------------------------------|

e|---------------------------------|
B|---------------------------------|
G|------7-7-7-7/9-9-9--------------|
D|------x-x-x-x/x-x-x--------------|  pa ulit-ulit lang
A|------5-5-5-5/7-7-7--------------|
D|---------------------------------|


Chorus
G1 
e|--------------------------------------------------------------|
B|--------------------------------------------------------------|
G|--------------5555-------7777------9h9------------------------|
D|-----5555-----5555-------7777------9h9------------------------|  x4
A|-----5555-----3333-------5777------7h7------------------------|
D|-----3333-----------------------------------------------------|

G2
e|--------------------------------------------------------------|
B|--------------------------------------------------------------|
G|------------------------5~----------------7~------------------|
D|-----5~-----------------5~volume swell----7~--volume swell----|  x4
A|-----5~-volume swell----3~----------------5~------------------|
D|-----3~-------------------------------------------------------|

Barkada trip, barkada, barkada...trip! trip! (4x)


Interlude 
Riff01
G1
e|-----------------------------------------------------|
B|-----------------------------------------------------|
G|----------555-----777--77--7/9---9/11----------------|
D|----55----555-----777--xx--x/x---x/x-----------------|  x4
A|----55----333-----555--55--5/7---7/9-----------------|
D|----33-----------------------------------------------|

G2
e|----------------------------------------|
B|----------------------------------------|
G|----------555-----777-------------------|
D|----55----555-----777-------------------|  x4
A|----55----333-----555-------------------|
D|----33----------------------------------|


Verse2
G1
e|-------------------------|
B|-------------------------|
G|-------------------------|
D|----55555555-------------|  
A|----55555555-------------|
D|----33333333-------------|

Tatambling nang tatambling

e|-------------------------|
B|-------------------------|
G|--------55555555---------|
D|--------55555555---------|  
A|--------33333333---------|
D|-------------------------|

Magsiswimming kami sa hangin

e|------------------------------|
B|------------------------------|
G|-------7h7h7h7h7h7h7h7--------|
D|-------7h7h7h7h7h7h7h7--------|  
A|-------5h5h5h5h5h5h5h5--------|
D|------------------------------|

(kikay trip!) magmemake-up, magmemake-up

e|------------------------------|
B|------------------------------|
G|----------9h9h9h9h9h9h9h9-----|
D|----------9h9h9h9h9h9h9h9-----|  
A|----------7h7h7h7h7h7h7h7-----|
D|------------------------------|

(bad trip!) ang magsyotang kakabreak-up lang

e|-------------------------|
B|-------------------------|
G|-------------------------|
D|----55555555-------------|  
A|----55555555-------------|
D|----33333333-------------|

Tatagay nang tatagay

e|-------------------------|
B|-------------------------|
G|--------55555555---------|
D|--------55555555---------|  
A|--------33333333---------|
D|-------------------------|

Tatambay hanggang wala ng malay

e|------------------------------|
B|------------------------------|
G|-------7h7h7h7h7h7h7h7--------|
D|-------7h7h7h7h7h7h7h7--------|  
A|-------5h5h5h5h5h5h5h5--------|
D|------------------------------|

(tulog trip!) matutulog sa kalye

e|------------------------------|
B|------------------------------|
G|----------9h9h9h9h9h9h9h9-----|
D|----------9h9h9h9h9h9h9h9-----|  
A|----------7h7h7h7h7h7h7h7-----|
D|------------------------------|

Mananaginip ng simple lang.....


Riff02
G1
e|-----------------------------------|
B|-----------------------------------|
G|----------------55----7---5--------|
D|----55555555----55----7---5---5----| 
A|----55555555----33----5---3---5----|
D|----33333333------------------3----|




e|-------------------------------------------|
B|-------------------------------------------|
G|----------------55----7---5---99999999-----|
D|----55555555----55----7---5---99999999-----| 
A|----55555555----33----5---3---77777777-----|
D|----33333333-------------------------------|




Wait for the Bass then play this 

e|-------------------------------------|
B|-------------------------------------|
G|-----------5xx~---7xx~---------------|  x4
D|----5xx~---5xx~---7xx~---------------|   
A|----5xx~---3xx~---5xx~---------------|
D|----3xx~-----------------------------|

  e2 mabilis na pag kaskas, pakinggan nyo nalang ung kanta
e|----------------------------|
B|----------------------------|
G|---------5~---7~~~~~--------|
D|----5~---5~---7~~~~~--------|  x3
A|----5~---3~---5~~~~~--------|
D|----3~----------------------|

e|---------------------------------------|
B|---------------------------------------|
G|---------5~---7~~~~~---5~--------------|
D|----5~---5~---7~~~~~---5~-volume swell-|  
A|----5~---3~---5~~~~~---3~--------------|
D|----3~---------------------------------|
      
                        oh ha!



Chorus
G1 & G2
e|----------------------------------------------------|
B|----------------------------------------------------|
G|--------------5555-------7777------9h9--------------|
D|-----5555-----5555-------7777------9h9--------------|  x8
A|-----5555-----3333-------5777------7h7--------------|
D|-----3333-------------------------------------------|


Barkada trip, barkada, barkada...trip! trip! (8x)

e|---------------------------------------------|
B|---------------------------------------------|
G|----7h7h7h7h7h7h7-----------9~---------------|
D|----7h7h7h7h7h7h7-----------9~-volume swell--|   
A|----5h5h5h5h5h5h5-----------7~---------------|
D|---------------------------------------------|


\**************************************************************************/
e2 bonus lang po wala po sa kanta, pero tono ng verse ng kanta 
ginawan ko lang ng lead nito..... pede rin niyong subukan kung gusto niyo

e|------------------------------------------------------------------|
B|----7/9-7-----9-7-5---9-7-9--5---10-9---7---11^---9-7-5-7-9-------|
G|----------9---------------------------9---------------------9-----|
D|------------8-----------------------------------------------------|  
A|------------------------------------------------------------------|
D|------------------------------------------------------------------|

/************************************************************************\


ako po ulit.. may dinagdag lang ako, lead ng verse at may bonus version ko sa verse part... 
binago ko rin ung format
para mas madaling basahin at intindihin....
salamat po pala sa mga nag add sa akin sa friendster at sa nag rate 


****KUNG MAY TANONG KAU?*****COMMENT?****

just free to send me a message in myspace or friendster
but, add me first. para maka send kau ng message. Oh ha!

friendster - mykro85@yahoo.com

myspace - chicoholics@yahoo.com

Tap to rate this tab
# A B C D E F G H I J K L M N O P Q R S T U V W X Y Z