Guitaretab - guitar tabs
Song name
# A B C D E F G H I J K L M N O P Q R S T U V W X Y Z

Aizo - Bukambibig tab

Title: Bukambibig
Artist: Aizo
Album: nababaliw na ang payaso
Copy year: 2006

Tabber: Michael -chico- Rombawa
for friendstertseness : mykro85@yahoo.com
for myspacers & neatvibers: chicoholics@yahoo.com
						     

Intro:

G1
e|------------------------------------------------------|
B|------------------------------------------------------|
G|----7-7--7-7-7-7---5-5-5-5-5-5-5-5--------------------|
D|----7-7--7-7-7-7---5-5-5-5-5-5-5-5---5-5-5-5-5-5-5----| x2
A|----5-5--5-7-7-7---3-3-3-3-3-3-3-3---5-5-5-5-5-5-5----|
D|-------------------------------------3-3-3-3-3-3-3----|
G2
e|--------------------------------------------------------|
B|--------------------------------------------------------|
G|----7-7--7777---55555555---99999999---1111111111111111--|
D|----x-x--xxxx---xxxxxxxx---xxxxxxxx---x-x-x-x-x-x-x-x---| x2
A|----5-5--5777---33333333---77777777---9-9-9-9-9-9-9-9---|
D|--------------------------------------------------------|

Verse1:
G1
e|---------------------------------------------------------|
B|---------------------------------------------------------|
G|----7-7-7-7-7-7-7-----5-5-5-5-5-5-5-5--------------------|
D|----7-7-7-7-7-7-7-----5-5-5-5-5-5-5-5----5-5-5-5-5-5-5---| 
A|----5-5-5-5-5-5-5-----3-3-3-3-3-3-3-3----5-5-5-5-5-5-5---|
D|-----------------------------------------3-3-3-3-3-3-3---|
suntok sa buwan habang  tayo'y maaasahan   pano na raw ang susunod
G2
e|----7-7--5-5-------7-7--5-5------|
B|-------------7-7------------7-7--|
G|---------------------------------|
D|---------------------------------|  
A|---------------------------------|
D|---------------------------------|
na henerasyon
G1
e|----------------------------------------------------------|
B|----------------------------------------------------------|
G|----7-7-7-7-7-7-7---5-5-5-5-5-5-5-5-----------------------|
D|----7-7-7-7-7-7-7---5-5-5-5-5-5-5-5-------5-5-5-5-5-5-5---| 
A|----5-5-5-5-5-5-5---3-3-3-3-3-3-3-3-------5-5-5-5-5-5-5---|
D|------------------------------------------3-3-3-3-3-3-3---|
bukambibig ng masa     sa atin ang pag asa  hahasahin hahasahin
G2
e|----7-7--5-5-------7-7--5-5------|
B|-------------7-7------------7-7--|
G|---------------------------------|
D|---------------------------------|  
A|---------------------------------|
D|---------------------------------|
ng panahon

Pre Chorus:
G1
e|------------------------------------------|
B|------------------------------------------|
G|------------------------------------------|
D|---2-2-2-2-2-2-2-2---5-5-5-5-5-5-5-5------| x2 
A|---2-2-2-2-2-2-2-2---5-5-5-5-5-5-5-5------|
D|---0-0-0-0-0-0-0-0---3-3-3-3-3-3-3-3------|
wag kang makalimot    at wag kakalimotan 
na ikaw ay bata        at tayo ang kabataan
G2
e|-----------------------------------------------------|
B|-----------------------------------------------------|
G|---7--------9-------7-------9-------11---------------|
D|---x-(x12)---x-(x12)--x-(x12)--x-(x12)--x--(x12)-----|  
A|---5--------7-------5-------7-------9----------------|
D|-----------------------------------------------------|

Chorus:
e|-----------------------------------------------------------------|
B|-----------------------------------------------------------------|
G|----7-7--7-7-7-7---5-5-5-5-5-5---4-4-4-4-4-4--3-3-3-3-3-3-3-3----|
D|----7-7--7-7-7-7---5-5-5-5-5-5---4-4-4-4-4-4--3-3-3-3-3-3-3-3----| x4
A|----5-5--5-7-7-7---3-3-3-3-3-3---2-2-2-2-2-2--1-1-1-1-1-1-1-1----|
D|-----------------------------------------------------------------|
Uy!!
mag salita mag salita
merun tayong magagawa
oh makinig oh makinig....
e|-----------------------------------------------------|
B|-----------------------------------------------------|
G|----7-7--7777---555555---444444--33333333--555555----|
D|----7-7--7777---555555---444444--33333333--555555----| 
A|----5-5--5777---333333---222222--11111111--333333----|
D|-----------------------------------------------------|
sa amin bukambibig

Interlude
G1
e|------------------------------------------------------|
B|------------------------------------------------------|
G|----7-7--7-7-7-7---5-5-5-5-5-5-5-5--------------------|
D|----7-7--7-7-7-7---5-5-5-5-5-5-5-5---5-5-5-5-5-5-5----| x2
A|----5-5--5-7-7-7---3-3-3-3-3-3-3-3---5-5-5-5-5-5-5----|
D|-------------------------------------3-3-3-3-3-3-3----|
G2
e|--------------------------------------------------------|
B|--------------------------------------------------------|
G|----7-7--7777---55555555---99999999---1111111111111111--|
D|----x-x--xxxx---xxxxxxxx---xxxxxxxx---x-x-x-x-x-x-x-x---| x2
A|----5-5--5777---33333333---77777777---9-9-9-9-9-9-9-9---|
D|--------------------------------------------------------|

G1
e|-----------------------------------------|
B|-----------------------------------------|
G|----7-7--7-7-7-7---5-5-5-5-5-5-5-5-------|
D|----7-7--7-7-7-7---5-5-5-5-5-5-5-5-------| x2
A|----5-5--5-7-7-7---3-3-3-3-3-3-3-3-------|
D|-----------------------------------------|
G1
e|------------------------------------------------------|
B|------------------------------------------------------|
G|----7-7--7-7-7-7---5-5-5-5-5-5-5-5--------------------|
D|----7-7--7-7-7-7---5-5-5-5-5-5-5-5---5-5-5-5-5-5-5----| 
A|----5-5--5-7-7-7---3-3-3-3-3-3-3-3---5-5-5-5-5-5-5----|
D|-------------------------------------3-3-3-3-3-3-3----|

G2
e|---------------------------------------|
B|---------------------------------------|
G|----7-7--7-7-7-7---5-5-5-5-5-5-5-5-----|
D|----x-x--x-x-x-x---x-x-x-x-x-x-x-x-----| x2
A|----5-5--5-7-7-7---3-3-3-3-3-3-3-3-----|
D|---------------------------------------|
[ Tab from: http://www.guitaretab.com/a/aizo/74572.html ]
G2
e|---------------------------------------------------------|
B|---------------------------------------------------------|
G|----7-7--7-7-7-7---5-5-5-5-5-5-5-5---9-9-9-9-9-9-9-9-----|
D|----x-x--x-x-x-x---x-x-x-x-x-x-x-x---x-x-x-x-x-x-x-x-----| 
A|----5-5--5-7-7-7---3-3-3-3-3-3-3-3---7-7-7-7-7-7-7-7-----|
D|---------------------------------------------------------|

Verse2:
G1
e|---------------------------------------------------------|
B|---------------------------------------------------------|
G|----7-7-7-7-7-7-7----5-5-5-5-5-5-5-5---------------------|
D|----7-7-7-7-7-7-7----5-5-5-5-5-5-5-5-----5-5-5-5-5-5-5---| 
A|----5-5-5-5-5-5-5----3-3-3-3-3-3-3-3-----5-5-5-5-5-5-5---|
D|-----------------------------------------3-3-3-3-3-3-3---|
kasing talim ng punyal ang dila kumakasal  gagamitin gagamitin 
G2
e|----7-7--5-5-------7-7--5-5------|
B|-------------7-7------------7-7--|
G|---------------------------------|
D|---------------------------------|  
A|---------------------------------|
D|---------------------------------|
sa tamang pagkakataon
G1
e|------------------------------------------------------------------------|
B|------------------------------------------------------------------------|
G|----7-7-7-7-7-7-7------------5-5-5-5-5-5-5-5----------------------------|
D|----7-7-7-7-7-7-7------------5-5-5-5-5-5-5-5------------5-5-5-5-5-5-5---| 
A|----5-5-5-5-5-5-5------------3-3-3-3-3-3-3-3------------5-5-5-5-5-5-5---|
D|--------------------------------------------------------3-3-3-3-3-3-3---|
bakit hindi niyo kami subukan  marunong din kaming lumaban  gawa sa gawa salita sa salita
G2
e|----7-7--5-5-------7-7--5-5------|
B|-------------7-7------------7-7--|
G|---------------------------------|
D|---------------------------------|  
A|---------------------------------|
D|---------------------------------|
nanahi ang bukam bibig

Pre Chorus:
G1
e|------------------------------------------|
B|------------------------------------------|
G|------------------------------------------|
D|---2-2-2-2-2-2-2-2---5-5-5-5-5-5-5-5------| x2 
A|---2-2-2-2-2-2-2-2---5-5-5-5-5-5-5-5------|
D|---0-0-0-0-0-0-0-0---3-3-3-3-3-3-3-3------|
Hindi kami makakalimot malalim ang kakalimotan
Habang buhay kami ay bata para sa kabataan
G2
e|-----------------------------------------------------|
B|-----------------------------------------------------|
G|---7--------9-------7-------9-------11---------------|
D|---x-(x12)---x-(x12)--x-(x12)--x-(x12)--x--(x12)-----|  
A|---5--------7-------5-------7-------9----------------|
D|-----------------------------------------------------|

Chorus:
e|-----------------------------------------------------------------|
B|-----------------------------------------------------------------|
G|----7-7--7-7-7-7---5-5-5-5-5-5---4-4-4-4-4-4--3-3-3-3-3-3-3-3----|
D|----7-7--7-7-7-7---5-5-5-5-5-5---4-4-4-4-4-4--3-3-3-3-3-3-3-3----| x4
A|----5-5--5-7-7-7---3-3-3-3-3-3---2-2-2-2-2-2--1-1-1-1-1-1-1-1----|
D|-----------------------------------------------------------------|
Uy!!
mag salita mag salita
merun tayong magagawa
oh makinig oh makinig....
e|-----------------------------------------------------|
B|-----------------------------------------------------|
G|----7-7--7777---555555---444444--33333333--555555----|
D|----7-7--7777---555555---444444--33333333--555555----| 
A|----5-5--5777---333333---222222--11111111--333333----|
D|-----------------------------------------------------|
sa amin bukambibig

Interlude
G1
e|------------------------------------------------------|
B|------------------------------------------------------|
G|----7-7--7-7-7-7---5-5-5-5-5-5-5-5--------------------|
D|----7-7--7-7-7-7---5-5-5-5-5-5-5-5---5-5-5-5-5-5-5----| x2
A|----5-5--5-7-7-7---3-3-3-3-3-3-3-3---5-5-5-5-5-5-5----|
D|-------------------------------------3-3-3-3-3-3-3----|
G2
e|--------------------------------------------------------|
B|--------------------------------------------------------|
G|----7-7--7777---55555555---99999999---1111111111111111--|
D|----x-x--xxxx---xxxxxxxx---xxxxxxxx---x-x-x-x-x-x-x-x---| x2
A|----5-5--5777---33333333---77777777---9-9-9-9-9-9-9-9---|
D|--------------------------------------------------------|
G1
e|-----------------------------------------|
B|-----------------------------------------|
G|----7-7--7-7-7-7---5-5-5-5-5-5-5-5-------|
D|----7-7--7-7-7-7---5-5-5-5-5-5-5-5-------| x2
A|----5-5--5-7-7-7---3-3-3-3-3-3-3-3-------|
D|-----------------------------------------|
G1
e|------------------------------------------------------|
B|------------------------------------------------------|
G|----7-7--7-7-7-7---5-5-5-5-5-5-5-5--------------------|
D|----7-7--7-7-7-7---5-5-5-5-5-5-5-5---5-5-5-5-5-5-5----| 
A|----5-5--5-7-7-7---3-3-3-3-3-3-3-3---5-5-5-5-5-5-5----|
D|-------------------------------------3-3-3-3-3-3-3----|

G2
e|---------------------------------------|
B|---------------------------------------|
G|----7-7--7-7-7-7---5-5-5-5-5-5-5-5-----|
D|----x-x--x-x-x-x---x-x-x-x-x-x-x-x-----| x2
A|----5-5--5-7-7-7---3-3-3-3-3-3-3-3-----|
D|---------------------------------------|

G2
e|---------------------------------------------------------|
B|---------------------------------------------------------|
G|----7-7--7-7-7-7---5-5-5-5-5-5-5-5---9-9-9-9-9-9-9-9-----|
D|----x-x--x-x-x-x---x-x-x-x-x-x-x-x---x-x-x-x-x-x-x-x-----| 
A|----5-5--5-7-7-7---3-3-3-3-3-3-3-3---7-7-7-7-7-7-7-7-----|
D|---------------------------------------------------------|

Outro:(do the Interlude)


e2ng kantang e2 para sa mga kabataang ka2lad ko.....
pede e2 ipalit sa sound track ng PBB teens....hehe ^-^
para din e2 sa mga kapatero na nakaka alam nitong kanta 
at sa mga bumili ng album ng aizo...
para sa ibang kanta nila just watch barkada trip... suki ang aizo dun..


salamat pala kay SunShine sa CD ng Aizo, xya ang nagbigay sakin ng 
orig cd ng aizo(nababaliw na ang payaso) nung b-day ko matagal na kasi ako naghahanap cd nila
ey mahirap maghanap buti nalang andyan ka....
Punta ka ul8 sa amin jamm'n ul8 tau... wag kalimutan pulotan...hehe ^-^



****KUNG MAY TANONG KAU?*****COMMENT?****

just free to send me a message in myspace or friendster
but, add me first. para maka send kau ng message. Oh ha!

friendster - mykro85@yahoo.com

myspace - chicoholics@yahoo.com

Related for Bukambibig tab
Advertisement will be closed in 10 seconds