Song name
# A B C D E F G H I J K L M N O P Q R S T U V W X Y Z

Aizo - Sa Baybreak tab

Title: Sa Bay Break(Track 10/11)
Artist: Aizo
Album: nababaliw na ang payaso
Copy year: 2006

Tabber: Michael -chico- Rombawa
for friendstertseness : mykro85@yahoo.com
for myspacers & neatvibers: chicoholics@yahoo.com
					     

Intro:

e|----------------------------------------------|
B|----------------------------------------------|
G|-----------555---7-7/5--4-----55555555--------|
D|----5-x----555---7-7/5--4-----55555555--------| 
A|----5-x----333---5-5/3--2-----33333333--------|
D|----3-x---------------------------------------|


Verse1:

 mabilis e2, pakinggan niyo nalang ung kanta...
e|----------------------------------------------|
B|----------------------------------------------|
G|----------------------------------------------|
D|--------4h5-5h7-7h9-8h10---5h7-7h9---4h5-5h7--| x4
A|----3h5------------------3---------5----------|
D|----------------------------------------------|

Interlude
e|----------------------------------------------|
B|----------------------------------------------|
G|-----------555---7-7/5--4-----55555555--------|
D|----5-x----555---7-7/5--4-----55555555--------| 
A|----5-x----333---5-5/3--2-----33333333--------|
D|----3-x---------------------------------------|


Verse2:
e|----------------------------------------------|
B|----------------------------------------------|
G|----------------------------------------------|
D|--------4h5-5h7-7h9-8h10---5h7-7h9---4h5-5h7--| x4
A|----3h5------------------3---------5----------|
D|----------------------------------------------|

Pre Chorus:
e|------------------------------------|
B|------------------------------------|
G|----777777--555555------------------|
D|----777777--555555--555555--777777--| x4
A|----555555--333333--555555--777777--|
D|--------------------333333--555555--|


Chorus:
e|------------------------------------------------|
B|------------------------------------------------|
G|--------------55555555---77777777---555555555---|
D|---55555555---55555555---77777777---555555555---|
A|---55555555---33333333---55555555---333333333---|
D|---33333333-------------------------------------|


Interlude

e|----------------------------------------------|
B|----------------------------------------------|
G|-----------555---7-7/5--4-----55555555--------|
D|----5-x----555---7-7/5--4-----55555555--------| 
A|----5-x----333---5-5/3--2-----33333333--------|
D|----3-x---------------------------------------|


Verse3:
e|----------------------------------------------|
B|----------------------------------------------|
G|----------------------------------------------|
D|--------4h5-5h7-7h9-8h10---5h7-7h9---4h5-5h7--| x4
A|----3h5------------------3---------5----------|
D|----------------------------------------------|

Pre Chorus:
e|------------------------------------|
B|------------------------------------|
G|----777777--555555------------------|
D|----777777--555555--555555--777777--| x4
A|----555555--333333--555555--777777--|
D|--------------------333333--555555--|



bass




Pre Chorus:
e|------------------------------------|
B|------------------------------------|
G|----777777--555555------------------|
D|----777777--555555--555555--777777--| x4
A|----555555--333333--555555--777777--|
D|--------------------333333--555555--|


Chorus:
e|------------------------------------------------|
B|------------------------------------------------|
G|--------------55555555---77777777---555555555---|
D|---55555555---55555555---77777777---555555555---|
A|---55555555---33333333---55555555---333333333---|
D|---33333333-------------------------------------|


e|----------------------------------------------|
B|----------------------------------------------|
G|-----------555---7-7/5--4-----55555555--------|
D|----5-x----555---7-7/5--4-----55555555--------| 
A|----5-x----333---5-5/3--2-----33333333--------|
D|----3-x---------------------------------------|

oi...oi..oi...oi...oi...oi


sori wala ako sa mode para isulat ung lyrics nito.....
kung guto nu talaga send nu nalang ako....
para makuha nu..
salamat..


****KUNG MAY TANONG KAU?*****COMMENT?****

just free to send me a message in myspace or friendster
but, add me first. para maka send kau ng message. Oh ha!

friendster - mykro85@yahoo.com

myspace - chicoholics@yahoo.com

Tap to rate this tab
 
# A B C D E F G H I J K L M N O P Q R S T U V W X Y Z