Song name
# A B C D E F G H I J K L M N O P Q R S T U V W X Y Z

Aizo - Pahina tab

Song Title:   Pahina
Atrist:       Aizo
Album Title:  Nababaliw Na Ang Payaso
Tuning:       Guitar Standard Tuning


Tablature Legend
----------------
n  -  n-tuplet (3)
/  -  slide (from/to)
i  -  let ring


Misc Legend
-----------
|      -  bar
|:-:|  -  repeat open-repeat close x2
::-::  -  repeat open-repeat close x4



Tempo:          128
Time Signature: 3/4


[Intro 1]
Guitar 1
|:-------|-------|-------|------|-------|-------|-------|-------:|
|:-------|-------|-------|------|-------|-------|-------|-------:|
|:-------|-------|-------|------|-------|-------|-------|-------:|
|:-------|-------|-------|------|-------|-------|-------|-------:|
|:-------|-------|-------|------|-------|-------|-------|-------:|
|:-------|-------|-------|------|-------|-------|-------|-------:|
Guitar 2
|:-------|-------|-------|------|-------|-------|-------|-------:|
|:-------|-------|-------|------|-------|-------|-------|-------:|
|:-------|-------|-------|------|-------|-------|-------|-------:|
|:-------|-------|-------|------|-------|-------|-------|-------:|
|:---5---|---5---|---5-7-|-5-4--|---5---|---5---|---5-7-|-5-4---:|
|:-3---3-|-2---2-|-0-----|----5-|-3---3-|-2---2-|-0-----|-----5-:|


Tempo:          142
Time Signature: 4/4

[Intro 2]
Guitar 1
   G5                G/F#              E5                C5
|:-----------------|-----------------|-----------------|-----------------:|
|:-----------------|-----------------|-----------------|-----------------:|
|:-----------------|-----------------|-9-9-9-9-9-9-9-9-|-5-5-5-5-5-5-5-5-:|
|:-5-5-5-5-5-5-5-5-|-5-5-5-5-5-5-5-5-|-9-9-9-9-9-9-9-9-|-5-5-5-5-5-5-5-5-:|
|:-5-5-5-5-5-5-5-5-|-5-5-5-5-5-5-5-5-|-7-7-7-7-7-7-7-7-|-3-3-3-3-3-3-3-3-:|
|:-3-3-3-3-3-3-3-3-|-2-2-2-2-2-2-2-2-|-----------------|-----------------:|
Guitar 2
   G5                G/F#              E5                C5   B5   A5
|:-----------------|-----------------|-----------------|-----------------:|
|:-----------------|-----------------|-----------------|-----------------:|
|:-----------------|-----------------|-----------------|-----------------:|
|:-----------------|-----------------|-----------------|-5n---4n---------:|
|:-5---------------|-5---------------|-2---------------|-5n---4n---7n----:|
|:-5---------------|-5---------------|-2---------------|-3n---2n---7n----:|
|:-3---------------|-2---------------|-0---------------|-----------5n----:|


[Verse 1]
Guitar 1
   G5                G/F#              E5                C5
::-----------------|-----------------|-----------------|-----------------::
::-----------------|-----------------|-----------------|-----------------::
::-----------------|-----------------|-9-9-9-9-9-9-9-9-|-5-5-5-5-5-5-5-5-::
::-5-5-5-5-5-5-5-5-|-5-5-5-5-5-5-5-5-|-9-9-9-9-9-9-9-9-|-5-5-5-5-5-5-5-5-::
::-5-5-5-5-5-5-5-5-|-5-5-5-5-5-5-5-5-|-7-7-7-7-7-7-7-7-|-3-3-3-3-3-3-3-3-::
::-3-3-3-3-3-3-3-3-|-2-2-2-2-2-2-2-2-|-----------------|-----------------::
Guitar 2
   G5                G/F#              E5                C5   B5   A5
|:-----------------|-----------------|-----------------|-----------------:|
|:-----------------|-----------------|-----------------|-----------------:|
|:-----------------|-----------------|-----------------|-----------------:|
|:-----------------|-----------------|-----------------|-----------------:|
|:-----------------|-----------------|-----------------|-3n---2n---------:|
|:-3---------------|-2---------------|-0---------------|-----------5n----:|
  G5                G/F#              E5                C5    B5   A5
|-----------------|-----------------|---------------5///11i-------------|
|-----------------|-----------------|-----------------|-----------------|
|-----------------|-----------------|-----------------|-----------------|
|-----------------|-----------------|-----------------|-----------------|
|-----------------|-----------------|-----------------|-----------------|
|-3---------------|-2---------------|-0---------------|-----------------|
  G5                G/F#              E5                C5   B5   A5
|-----------------|-----------------|-----------------|-----------------|
|-----------------|-----------------|-----------------|-----------------|
|-----------------|-----------------|-----------------|-----------------|
|-----------------|-----------------|-----------------|-----------------|
|-----------------|-----------------|-----------------|-3n---2n---------|
|-3---------------|-2---------------|-0---------------|-----------5n----|


[Verse 2]
Guitar 1
   G5                G/F#              E5                C5
::-----------------|-----------------|-----------------|-----------------::
::-----------------|-----------------|-----------------|-----------------::
::-----------------|-----------------|-9-9-9-9-9-9-9-9-|-5-5-5-5-5-5-5-5-::
::-5-5-5-5-5-5-5-5-|-5-5-5-5-5-5-5-5-|-9-9-9-9-9-9-9-9-|-5-5-5-5-5-5-5-5-::
::-5-5-5-5-5-5-5-5-|-5-5-5-5-5-5-5-5-|-7-7-7-7-7-7-7-7-|-3-3-3-3-3-3-3-3-::
::-3-3-3-3-3-3-3-3-|-2-2-2-2-2-2-2-2-|-----------------|-----------------::
Guitar 2
   G5                G/F#              E5                C5   B5   A5
|:-----------------|-----------------|-----------------|-----------------:|
|:-----------------|-----------------|-----------------|-----------------:|
|:-----------------|-----------------|-----------------|-----------------:|
|:-----------------|-----------------|-----------------|-----------------:|
|:-----------------|-----------------|-----------------|-3n---2n---------:|
|:-3---------------|-2---------------|-0---------------|-----------5n----:|
  G5                G/F#              E5                C5    B5   A5
|-----------------|-----------------|---------------5///11i-------------|
|-----------------|-----------------|-----------------|-----------------|
|-----------------|-----------------|-----------------|-----------------|
|-----------------|-----------------|-----------------|-----------------|
|-----------------|-----------------|-----------------|-----------------|
|-3---------------|-2---------------|-0---------------|-----------------|
  G5                G/F#              E5                C5   B5   A5
|-----------------|-----------------|-----------------|-----------------|
|-----------------|-----------------|-----------------|-----------------|
|-----------------|-----------------|-----------------|-----------------|
|-----------------|-----------------|-----------------|-----------------|
|-----------------|-----------------|-----------------|-3n---2n---------|
|-3---------------|-2---------------|-0---------------|-----------5n----|


[Pre-Chorus]
Guitar 1
  C5                C5                D5                D5
|-----------------|-----------------|-----------------|-----------------|
|-----------------|-----------------|-----------------|-----------------|
|-5-5-5-5-5-5-5-5-|-5-5-5-5-5-5-5-5-|-7-7-7-7-7-7-7-7-|-7-7-7-7-7-7-7-7-|
|-5-5-5-5-5-5-5-5-|-5-5-5-5-5-5-5-5-|-7-7-7-7-7-7-7-7-|-7-7-7-7-7-7-7-7-|
|-3-3-3-3-3-3-3-3-|-3-3-3-3-3-3-3-3-|-5-5-5-5-5-5-5-5-|-5-5-5-5-5-5-5-5-|
|-----------------|-----------------|-----------------|-----------------|
  C5                C5                D5                D5
|-----------------|-----------------|-----------------|-----------------|
|-----------------|-----------------|-----------------|-----------------|
|-5-5-5-5-5-5-5-5-|-5-5-5-5-5-5-5-5-|-7-7-7-7-7-7-7-7-|-7---------------|
|-5-5-5-5-5-5-5-5-|-5-5-5-5-5-5-5-5-|-7-7-7-7-7-7-7-7-|-7---------------|
|-3-3-3-3-3-3-3-3-|-3-3-3-3-3-3-3-3-|-5-5-5-5-5-5-5-5-|-5---------------|
|-----------------|-----------------|-----------------|-----------------|
Guitar 2
  C5                C5                D5                D5
|-----------------|-----------------|-----------------|-----------------|
|-----------------|-----------------|-----------------|-----------------|
|-5-5-5-5-5-5-5-5-|-5-5-5-5-5-5-5-5-|-7-7-7-7-7-7-7-7-|-7-7-7-7-7-7-7-7-|
|-5-5-5-5-5-5-5-5-|-5-5-5-5-5-5-5-5-|-7-7-7-7-7-7-7-7-|-7-7-7-7-7-7-7-7-|
|-3-3-3-3-3-3-3-3-|-3-3-3-3-3-3-3-3-|-5-5-5-5-5-5-5-5-|-5-5-5-5-5-5-5-5-|
|-----------------|-----------------|-----------------|-----------------|
  C5                C5                D5                D5
|-----------------|-----------------|-----------------|-----------------|
|-----------------|-----------------|-----------------|-----------------|
|-5-5-5-5-5-5-5-5-|-5-5-5-5-5-5-5-5-|-7-7-7-7-7-7-7-7-|-7---------------|
|-5-5-5-5-5-5-5-5-|-5-5-5-5-5-5-5-5-|-7-7-7-7-7-7-7-7-|-7---------------|
|-3-3-3-3-3-3-3-3-|-3-3-3-3-3-3-3-3-|-5-5-5-5-5-5-5-5-|-5---------------|
|-----------------|-----------------|-----------------|-----------------|


[Chorus]
Guitar 1
   G5                G/F#              E5                C5
|:-----------------|-----------------|-----------------|-----------------:|
|:-----------------|-----------------|-----------------|-----------------:|
|:-----------------|-----------------|-9-9-9-9-9-9-9-9-|-5-5-5-5-5-5-5-5-:|
|:-5-5-5-5-5-5-5-5-|-5-5-5-5-5-5-5-5-|-9-9-9-9-9-9-9-9-|-5-5-5-5-5-5-5-5-:|
|:-5-5-5-5-5-5-5-5-|-5-5-5-5-5-5-5-5-|-7-7-7-7-7-7-7-7-|-3-3-3-3-3-3-3-3-:|
|:-3-3-3-3-3-3-3-3-|-2-2-2-2-2-2-2-2-|-----------------|-----------------:|
   G5                G/F#              E5                C5
|-----------------|-----------------|-----------------|-----------------|
|-----------------|-----------------|-----------------|-----------------|
|-----------------|-----------------|-9-9-9-9-9-9-9-9-|-5-5-5-5-5-5-5-5-|
|-5-5-5-5-5-5-5-5-|-5-5-5-5-5-5-5-5-|-9-9-9-9-9-9-9-9-|-5-5-5-5-5-5-5-5-|
|-5-5-5-5-5-5-5-5-|-5-5-5-5-5-5-5-5-|-7-7-7-7-7-7-7-7-|-3-3-3-3-3-3-3-3-|
|-3-3-3-3-3-3-3-3-|-2-2-2-2-2-2-2-2-|-----------------|-----------------|
   G5                G/F#              E5                C5
|-----------------|-----------------|-----------------|-----------------|
|-----------------|-----------------|-----------------|-----------------|
|-----------------|-----------------|-9-9-9-9-9-9-9-9-|-5---------------|
|-5-5-5-5-5-5-5-5-|-5-5-5-5-5-5-5-5-|-9-9-9-9-9-9-9-9-|-5---------------|
|-5-5-5-5-5-5-5-5-|-5-5-5-5-5-5-5-5-|-7-7-7-7-7-7-7-7-|-3---------------|
|-3-3-3-3-3-3-3-3-|-2-2-2-2-2-2-2-2-|-----------------|-----------------|
Guitar 2
    G5                G/F#              E5               C5  B5    A5
::-----------------|-----------------|-----------------|-----------------::
::-----------------|-----------------|-----------------|-----------------::
::-----------------|-----------------|-----------------|-----------------::
::-----------------|-----------------|-----------------|-5-5-4-4-4-------::
::-5---------------|-5---------------|-2---------------|-5-5-4-4-4-7-7-7-::
::-5---------------|-5---------------|-2---------------|-3-3-2-2-2-7-7-7-::
::-3---------------|-2---------------|-0---------------|-----------5-5-5-::
  G5                G/F#              E5                 C5  B5   A5
|-----------------|-----------------|-----------------|-----------------|
|-----------------|-----------------|-----------------|-----------------|
|-----------------|-----------------|-----------------|-----------------|
|-----------------|-----------------|-----------------|-5-5-4-4-4-------|
|-5-5-5-5-5-5-5-5-|-5-5-5-5-5-5-5-5-|-2-2-2-2-2-2-2-2-|-5-5-4-4-4-7-7-7-|
|-5-5-5-5-5-5-5-5-|-5-5-5-5-5-5-5-5-|-2-2-2-2-2-2-2-2-|-3-3-2-2-2-7-7-7-|
|-3-3-3-3-3-3-3-3-|-2-2-2-2-2-2-2-2-|-0-0-0-0-0-0-0-0-|-----------5-5-5-|
  G5                G/F#              E5                C5
|-----------------|-----------------|-----------------|-----------------|
|-----------------|-----------------|-----------------|-----------------|
|-----------------|-----------------|-----------------|-----------------|
|-----------------|-----------------|-----------------|-5---------------|
|-5-5-5-5-5-5-5-5-|-5-5-5-5-5-5-5-5-|-2-2-2-2-2-2-2-2-|-5---------------|
|-5-5-5-5-5-5-5-5-|-5-5-5-5-5-5-5-5-|-2-2-2-2-2-2-2-2-|-3---------------|
|-3-3-3-3-3-3-3-3-|-2-2-2-2-2-2-2-2-|-0-0-0-0-0-0-0-0-|-----------------|


[Fill]
Guitar 1
Guitar 1
   G5                G/F#              E5                C5
|:-----------------|-----------------|-----------------|-----------------:|
|:-----------------|-----------------|-----------------|-----------------:|
|:-----------------|-----------------|-9-9-9-9-9-9-9-9-|-5-5-5-5-5-5-5-5-:|
|:-5-5-5-5-5-5-5-5-|-5-5-5-5-5-5-5-5-|-9-9-9-9-9-9-9-9-|-5-5-5-5-5-5-5-5-:|
|:-5-5-5-5-5-5-5-5-|-5-5-5-5-5-5-5-5-|-7-7-7-7-7-7-7-7-|-3-3-3-3-3-3-3-3-:|
|:-3-3-3-3-3-3-3-3-|-2-2-2-2-2-2-2-2-|-----------------|-----------------:|
Guitar 2
   G5                G/F#              E5                C5   B5   A5
|:-----------------|-----------------|-----------------|-----------------:|
|:-----------------|-----------------|-----------------|-----------------:|
|:-----------------|-----------------|-----------------|-----------------:|
|:-----------------|-----------------|-----------------|-5n---4n---------:|
|:-5---------------|-5---------------|-2---------------|-5n---4n---7n----:|
|:-5---------------|-5---------------|-2---------------|-3n---2n---7n----:|
|:-3---------------|-2---------------|-0---------------|-----------5n----:|



[Verse 3]
Guitar 1
   G5                G/F#              E5                C5
::-----------------|-----------------|-----------------|-----------------::
::-----------------|-----------------|-----------------|-----------------::
::-----------------|-----------------|-9-9-9-9-9-9-9-9-|-5-5-5-5-5-5-5-5-::
::-5-5-5-5-5-5-5-5-|-5-5-5-5-5-5-5-5-|-9-9-9-9-9-9-9-9-|-5-5-5-5-5-5-5-5-::
::-5-5-5-5-5-5-5-5-|-5-5-5-5-5-5-5-5-|-7-7-7-7-7-7-7-7-|-3-3-3-3-3-3-3-3-::
::-3-3-3-3-3-3-3-3-|-2-2-2-2-2-2-2-2-|-----------------|-----------------::
Guitar 2
   G5                G/F#              E5                C5    B5   A5
|:-----------------|-----------------|-----------------|-----------------:|
|:-----------------|-----------------|-----------------|-----------------:|
|:-----------------|-----------------|-----------------|-----------------:|
|:-----------------|-----------------|-----------------|-----------------:|
|:-----------------|-----------------|-----------------|-3-----2---------:|
|:-3---------------|-2---------------|-0---------------|------------5----:|
  G5                G/F#              E5                C5    B5   A5
|-----------------|-----------------|-----------------|-5/11i-----------|
|-----------------|-----------------|-----------------|-----------------|
|-----------------|-----------------|-----------------|-----------------|
|-----------------|-----------------|-----------------|-----------------|
|-----------------|-----------------|-----------------|-----------------|
|-3---------------|-2---------------|-0---------------|-----------------|
  G5                G/F#              E5                C5    B5   A5
|-----------------|-----------------|-----------------|-----------------|
|-----------------|-----------------|-----------------|-----------------|
|-----------------|-----------------|-----------------|-----------------|
|-----------------|-----------------|-----------------|-----------------|
|-----------------|-----------------|-----------------|-3-----2---------|
|-3---------------|-2---------------|-0---------------|------------5----|


[Fill 2]
Guitar 1
   G5                G/F#              E5                C5
::-----------------|-----------------|-----------------|-----------------::
::-----------------|-----------------|-----------------|-----------------::
::-----------------|-----------------|-9-9-9-9-9-9-9-9-|-5-5-5-5-5-5-5-5-::
::-5-5-5-5-5-5-5-5-|-5-5-5-5-5-5-5-5-|-9-9-9-9-9-9-9-9-|-5-5-5-5-5-5-5-5-::
::-5-5-5-5-5-5-5-5-|-5-5-5-5-5-5-5-5-|-7-7-7-7-7-7-7-7-|-3-3-3-3-3-3-3-3-::
::-3-3-3-3-3-3-3-3-|-2-2-2-2-2-2-2-2-|-----------------|-----------------::
Guitar 2
    G5                G/F#              E5               C5    B5   A5
::-----------------|-----------------|-----------------|-----------------::
::-----------------|-----------------|-----------------|-----------------::
::-----------------|-----------------|-----------------|-----------------::
::-----------------|-----------------|-----------------|-5-5-5-4-4-------::
::-5---------------|-5---------------|-2---------------|-5-5-5-4-4-7-7-7-::
::-5---------------|-5---------------|-2---------------|-3-3-3-2-2-7-7-7-::
::-3---------------|-2---------------|-0---------------|-----------5-5-5-::


[Pre-Chorus 2]
Guitar 1
  C5                C5                D5                D5
|-----------------|-----------------|-----------------|-----------------|
|-----------------|-----------------|-----------------|-----------------|
|-5-5-5-5-5-5-5-5-|-5-5-5-5-5-5-5-5-|-7-7-7-7-7-7-7-7-|-7-7-7-7-7-7-7-7-|
|-5-5-5-5-5-5-5-5-|-5-5-5-5-5-5-5-5-|-7-7-7-7-7-7-7-7-|-7-7-7-7-7-7-7-7-|
|-3-3-3-3-3-3-3-3-|-3-3-3-3-3-3-3-3-|-5-5-5-5-5-5-5-5-|-5-5-5-5-5-5-5-5-|
|-----------------|-----------------|-----------------|-----------------|
  C5                C5                D5                D5
|-----------------|-----------------|-----------------|-----------------|
|-----------------|-----------------|-----------------|-----------------|
|-5-5-5-5-5-5-5-5-|-5-5-5-5-5-5-5-5-|-7-7-7-7-7-7-7-7-|-7---------------|
|-5-5-5-5-5-5-5-5-|-5-5-5-5-5-5-5-5-|-7-7-7-7-7-7-7-7-|-7---------------|
|-3-3-3-3-3-3-3-3-|-3-3-3-3-3-3-3-3-|-5-5-5-5-5-5-5-5-|-5---------------|
|-----------------|-----------------|-----------------|-----------------|
Guitar 2
  C5                C5                D5                D5
|-----------------|-----------------|-----------------|-----------------|
|-----------------|-----------------|-----------------|-----------------|
|-5-5-5-5-5-5-5-5-|-5-5-5-5-5-5-5-5-|-7-7-7-7-7-7-7-7-|-7-7-7-7-7-7-7-7-|
|-5-5-5-5-5-5-5-5-|-5-5-5-5-5-5-5-5-|-7-7-7-7-7-7-7-7-|-7-7-7-7-7-7-7-7-|
|-3-3-3-3-3-3-3-3-|-3-3-3-3-3-3-3-3-|-5-5-5-5-5-5-5-5-|-5-5-5-5-5-5-5-5-|
|-----------------|-----------------|-----------------|-----------------|
  C5                C5                D5                D5
|-----------------|-----------------|-----------------|-----------------|
|-----------------|-----------------|-----------------|-----------------|
|-5-5-5-5-5-5-5-5-|-5-5-5-5-5-5-5-5-|-7-7-7-7-7-7-7-7-|-7---------------|
|-5-5-5-5-5-5-5-5-|-5-5-5-5-5-5-5-5-|-7-7-7-7-7-7-7-7-|-7---------------|
|-3-3-3-3-3-3-3-3-|-3-3-3-3-3-3-3-3-|-5-5-5-5-5-5-5-5-|-5---------------|
|-----------------|-----------------|-----------------|-----------------|


[Chorus 2]
Guitar 1
   G            G/D#         Em7          C9
::-3----3-----|------3-----|------3-----|------3-----::
::-3------3---|--------3---|--------3---|--------3---::
::-0--0-----0-|----0-----0-|----0-----0-|----0-----0-::
::-0----------|------------|------------|------------::
::-2----------|------------|------------|-3----------::
::-3----------|-2----------|-0----------|------------::
   G            G/D#         Em7          C9
::-3----3-----|------3-----|------3-----|------3-----::
::-3------3---|--------3---|--------3---|--------3---::
::-0--0-----0-|----0-----0-|----0-----0-|----0-----0-::
::-0----------|------------|------------|------------::
::-2----------|------------|------------|-3----------::
::-3----------|-2----------|-0----------|------------::


[Chorus 3]
Guitar 1
   G5                G/F#              E5                C5
|:-----------------|-----------------|-----------------|-----------------:|
|:-----------------|-----------------|-----------------|-----------------:|
|:-----------------|-----------------|-9-9-9-9-9-9-9-9-|-5-5-5-5-5-5-5-5-:|
|:-5-5-5-5-5-5-5-5-|-5-5-5-5-5-5-5-5-|-9-9-9-9-9-9-9-9-|-5-5-5-5-5-5-5-5-:|
|:-5-5-5-5-5-5-5-5-|-5-5-5-5-5-5-5-5-|-7-7-7-7-7-7-7-7-|-3-3-3-3-3-3-3-3-:|
|:-3-3-3-3-3-3-3-3-|-2-2-2-2-2-2-2-2-|-----------------|-----------------:|
   G5                G/F#              E5                C5
|-----------------|-----------------|-----------------|-----------------|
|-----------------|-----------------|-----------------|-----------------|
|-----------------|-----------------|-9-9-9-9-9-9-9-9-|-5-5-5-5-5-5-5-5-|
|-5-5-5-5-5-5-5-5-|-5-5-5-5-5-5-5-5-|-9-9-9-9-9-9-9-9-|-5-5-5-5-5-5-5-5-|
|-5-5-5-5-5-5-5-5-|-5-5-5-5-5-5-5-5-|-7-7-7-7-7-7-7-7-|-3-3-3-3-3-3-3-3-|
|-3-3-3-3-3-3-3-3-|-2-2-2-2-2-2-2-2-|-----------------|-----------------|
   G5                G/F#              E5                C5
|-----------------|-----------------|-----------------|-----------------|
|-----------------|-----------------|-----------------|-----------------|
|-----------------|-----------------|-9-9-9-9-9-9-9-9-|-5---------------|
|-5-5-5-5-5-5-5-5-|-5-5-5-5-5-5-5-5-|-9-9-9-9-9-9-9-9-|-5---------------|
|-5-5-5-5-5-5-5-5-|-5-5-5-5-5-5-5-5-|-7-7-7-7-7-7-7-7-|-3---------------|
|-3-3-3-3-3-3-3-3-|-2-2-2-2-2-2-2-2-|-----------------|-----------------|
Guitar 2
    G5                G/F#              E5               C5  B5    A5
::-----------------|-----------------|-----------------|-----------------::
::-----------------|-----------------|-----------------|-----------------::
::-----------------|-----------------|-----------------|-----------------::
::-----------------|-----------------|-----------------|-5-5-4-4-4-------::
::-5---------------|-5---------------|-2---------------|-5-5-4-4-4-7-7-7-::
::-5---------------|-5---------------|-2---------------|-3-3-2-2-2-7-7-7-::
::-3---------------|-2---------------|-0---------------|-----------5-5-5-::
  G5                G/F#              E5                 C5  B5   A5
|-----------------|-----------------|-----------------|-----------------|
|-----------------|-----------------|-----------------|-----------------|
|-----------------|-----------------|-----------------|-----------------|
|-----------------|-----------------|-----------------|-5-5-4-4-4-------|
|-5-5-5-5-5-5-5-5-|-5-5-5-5-5-5-5-5-|-2-2-2-2-2-2-2-2-|-5-5-4-4-4-7-7-7-|
|-5-5-5-5-5-5-5-5-|-5-5-5-5-5-5-5-5-|-2-2-2-2-2-2-2-2-|-3-3-2-2-2-7-7-7-|
|-3-3-3-3-3-3-3-3-|-2-2-2-2-2-2-2-2-|-0-0-0-0-0-0-0-0-|-----------5-5-5-|
  G5                G/F#              E5                C5
|-----------------|-----------------|-----------------|-----------------|
|-----------------|-----------------|-----------------|-----------------|
|-----------------|-----------------|-----------------|-----------------|
|-----------------|-----------------|-----------------|-5---------------|
|-5-5-5-5-5-5-5-5-|-5-5-5-5-5-5-5-5-|-2-2-2-2-2-2-2-2-|-5---------------|
|-5-5-5-5-5-5-5-5-|-5-5-5-5-5-5-5-5-|-2-2-2-2-2-2-2-2-|-3---------------|
|-3-3-3-3-3-3-3-3-|-2-2-2-2-2-2-2-2-|-0-0-0-0-0-0-0-0-|-----------------|


[Coda]
Guitar 1
   G5                G/F#              E5                C5
|:-----------------|-----------------|-----------------|-----------------:|
|:-----------------|-----------------|-----------------|-----------------:|
|:-----------------|-----------------|-9-9-9-9-9-9-9-9-|-5-5-5-5-5-5-5-5-:|
|:-5-5-5-5-5-5-5-5-|-5-5-5-5-5-5-5-5-|-9-9-9-9-9-9-9-9-|-5-5-5-5-5-5-5-5-:|
|:-5-5-5-5-5-5-5-5-|-5-5-5-5-5-5-5-5-|-7-7-7-7-7-7-7-7-|-3-3-3-3-3-3-3-3-:|
|:-3-3-3-3-3-3-3-3-|-2-2-2-2-2-2-2-2-|-----------------|-----------------:|
   G5                G/F#              E5                C5
|-----------------|-----------------|-----------------|-----------------|
|-----------------|-----------------|-----------------|-----------------|
|-----------------|-----------------|-9-9-9-9-9-9-9-9-|-5-5-5-5-5-5-5-5-|
|-5-5-5-5-5-5-5-5-|-5-5-5-5-5-5-5-5-|-9-9-9-9-9-9-9-9-|-5-5-5-5-5-5-5-5-|
|-5-5-5-5-5-5-5-5-|-5-5-5-5-5-5-5-5-|-7-7-7-7-7-7-7-7-|-3-3-3-3-3-3-3-3-|
|-3-3-3-3-3-3-3-3-|-2-2-2-2-2-2-2-2-|-----------------|-----------------|
   G5                G/F#              E5                C5
|-----------------|-----------------|-----------------|-----------------|
|-----------------|-----------------|-----------------|-----------------|
|-----------------|-----------------|-9-9-9-9-9-9-9-9-|-5---------------|
|-5-5-5-5-5-5-5-5-|-5-5-5-5-5-5-5-5-|-9-9-9-9-9-9-9-9-|-5---------------|
|-5-5-5-5-5-5-5-5-|-5-5-5-5-5-5-5-5-|-7-7-7-7-7-7-7-7-|-3---------------|
|-3-3-3-3-3-3-3-3-|-2-2-2-2-2-2-2-2-|-----------------|-----------------|
Guitar 2
    G5                G/F#              E5               C5  B5    A5
::-----------------|-----------------|-----------------|-----------------::
::-----------------|-----------------|-----------------|-----------------::
::-----------------|-----------------|-----------------|-----------------::
::-----------------|-----------------|-----------------|-5-5-4-4-4-------::
::-5---------------|-5---------------|-2---------------|-5-5-4-4-4-7-7-7-::
::-5---------------|-5---------------|-2---------------|-3-3-2-2-2-7-7-7-::
::-3---------------|-2---------------|-0---------------|-----------5-5-5-::
  G5                G/F#              E5                 C5  B5   A5
|-----------------|-----------------|-----------------|-----------------|
|-----------------|-----------------|-----------------|-----------------|
|-----------------|-----------------|-----------------|-----------------|
|-----------------|-----------------|-----------------|-5-5-4-4-4-------|
|-5-5-5-5-5-5-5-5-|-5-5-5-5-5-5-5-5-|-2-2-2-2-2-2-2-2-|-5-5-4-4-4-7-7-7-|
|-5-5-5-5-5-5-5-5-|-5-5-5-5-5-5-5-5-|-2-2-2-2-2-2-2-2-|-3-3-2-2-2-7-7-7-|
|-3-3-3-3-3-3-3-3-|-2-2-2-2-2-2-2-2-|-0-0-0-0-0-0-0-0-|-----------5-5-5-|
  G5                G/F#              E5                C5
|-----------------|-----------------|-----------------|-----------------|
|-----------------|-----------------|-----------------|-----------------|
|-----------------|-----------------|-----------------|-----------------|
|-----------------|-----------------|-----------------|-5---------------|
|-5-5-5-5-5-5-5-5-|-5-5-5-5-5-5-5-5-|-2-2-2-2-2-2-2-2-|-5---------------|
|-5-5-5-5-5-5-5-5-|-5-5-5-5-5-5-5-5-|-2-2-2-2-2-2-2-2-|-3---------------|
|-3-3-3-3-3-3-3-3-|-2-2-2-2-2-2-2-2-|-0-0-0-0-0-0-0-0-|-----------------|


Tabbed By: Jeffrey Sancebuche
Tap to rate this tab
# A B C D E F G H I J K L M N O P Q R S T U V W X Y Z