Song name
# A B C D E F G H I J K L M N O P Q R S T U V W X Y Z

Aizo - Bituin Garden tab

part lang ng song-----------
ARTHURO BELARDO ANG LANDI MO PRE
xxxxintroxxxxx


e-------------------------------|
a-------------------------------|
d-------------------------------|
g-------6-------6---6-----------|
b---7-7-----7-7-------7---------|
e-------------------------------|

e------------------------------|
a------------------------------|
d------------------------------|
g-------7-------7-------7------|
b---7-7-----7-7-------7--------|
e------------------------------|

e------------------------------|
a------------------------------|
d------------------------------|
g-----------9------9------9----|
b------7-7-----7-7------7------|
e------------------------------|

gtr 2

e---------3-------3-------3----|
a-----4-4----4-4------4--------|
d------------------------------|
b------------------------------|
g------------------------------|
b------------------------------|

e---------4-------4-------4----|
a-----4-4----4-4------4--------|
d------------------------------|
b------------------------------|
g------------------------------|
b------------------------------|

e---------6-------6-------6----|
a-----4-4----4-4------4--------|
d------------------------------|
b------------------------------|
g------------------------------|
b------------------------------|


intro lang pre sana gumawa rin kayo!!!!!!
mabuhey!!!!BAGUIO CITY
U.C media center bat kayo nagkakalat ng mga pupu....pupusero!!!
ang hot ni michele santos sarapah!!!1
txt me 09193073620 no. ng tatay ko--
Tap to rate this tab
# A B C D E F G H I J K L M N O P Q R S T U V W X Y Z