Song name
# A B C D E F G H I J K L M N O P Q R S T U V W X Y Z

Aj Rafael - So Quiet tab

http://www.youtube.com/watch?v=Po4EtZYQ2Uw

I don't see why anybody did this yet, so i thought i should do it.
Watch the video for all the timings and strumming.

-------------------------------------------------------------------------------
			     So Quiet - Aj Rafael
-------------------------------------------------------------------------------
Tabbed by: Thtpnoydud
Email: Please don't email me.

Tuning: Standard EADGBe 
(Aj used a capo for his video, but that was only b/c his guitar was originally 
tuned 1/2 step down)

Intro:
e|-----------------------------------------------------------------|
B|----------1---------------4---------------3----------------------|
G|--------0----0----------0----0----------0----0---------0---------|
D|------2--------2------5--------5------4--------4-----5-----------|  x2
A|---3---------------6---------------5--------------6-------5--4---|
E|-----------------------------------------------------------------|

Verse:

     C    F    Ab/G#   G            Ab/G#   G
     
e|---0-----1-----4-----3-----      ---4-----3--|
B|---1-----1-----4-----3-----      ---4-----3--|
G|---0-----2-----5-----4-----      ---5-----4--|
D|---2-----3-----6-----5----- x2   ---6-----5--|
A|---3-----3-----6-----5-----      ---6-----5--|
E|---------1-----4-----3-----      ---4-----3--|

Chorus:

   Ab/G# Eb/D# Bb/A#   ? Bb/A#       Ab/G# Fm  Bb

e|---4-----6-----6-----8---6---       -4---1---1----|
B|---4-----8-----6-----8---6---       -4---1---3----|
G|---5-----8-----7-----8---7---       -5---1---3----|
D|---6-----8-----8-----8---8--- x2    -6---3---3----|
A|---6-----6-----8-----10--8---       -6---3---1----|
E|---4-----------6-----8---6---       -4---1--------|


Bridge: 
Starts at "I'll only be the only one for you, baby." Basically it's just riffs  
CHORUS->VERSE->INTRO. 

Then you end by strumming C.
  

:D

===============================================================================
Tap to rate this tab
# A B C D E F G H I J K L M N O P Q R S T U V W X Y Z