Song name
# A B C D E F G H I J K L M N O P Q R S T U V W X Y Z

Aj Rafael - When We Say Juicebox tab

-------------------------------------------------------------------------------
			     When We Say (Juice Box) - Aj Rafael
-------------------------------------------------------------------------------
Tabbed by:Jhustyne
Email:Jbrother1995@yahoo.com
Im 99.9% sure that this is all right,except for the last part of the verse.The 
pattern is simple as soon as you play along. 

Tuning: Standard Tuning
Order:Intro,Verse,Chorus,Intro,verse,chorus,bridge,and last chorus

Intro                            
e|--0--0---0--0--0---0--7-/-5-|
B|--0--0---0--0--0---0--0-/-0-|
G|--9--8-h-9--9--8-h-9--8-/-6-|
D|--9--9---9--9--9---9--9-/-7-|
A|--7--7---7--0--0---0--0---0-|
E|--0--0---0--x--x---x--x---x-|

Verse(2x)
e|--x--x--x--x--x--x--x--x-|-0--0--0--|
B|--x--x--x--x--x--x--x--x-|-0--0--0--|
G|--9--8--9--8--9--8--9--8-|-9--8--8--|
D|--9--9--9--9--9--9--9--9-|-9--9--9--|
A|--7--7--7--7--x--x--x--x-|-0--7--9--|
E|--x--x--x--x--9--9--9--9-|-0--0--7--|

Chorus
e|--0--0--0---0--0---0--0--0---0--0--0---|
B|--0--0--0---0--0---0--0--0---0--0--0---|
G|--6--8--9---2--4-/-6--2--4-/-6--2--4---|
D|--7--9--9---2--4-/-6--2--4-/-6--2--4---|
A|--7--9--7---0--2-/-4--0--2-/-4--0--2---|
E|--5--7--x---x--x---x--x--x---x--x--x---|

Note:During the bridge after the first 4 chords, strum once down then after those 
5 chords you go back into the pattern of the bridge.
                  Strum
                 /Down \               
Bridge          / Once  \
e|--0--0--0--0--0-0-0-0-0--0--0--0--2--0--0--0--0--0--0--0--|
B|--0--0--0--0--0-0-0-0-0--0--0--0--3--0--0--0--0--0--0--0--|
G|--2--4--2--4--4-4-4-4-4--2--4--2--2--2--2--4--2--3--6--8--|
D|--2--4--2--4--4-4-4-4-4--2--4--2--0--2--2--4--2--4--7--9--|
A|--x--x--0--2--2-0-0-0-0--x--x--0--0--0--x--x--0--4--7--9--|
E|--2--4--x--x--0-0-4-2-0--2--4--x--x--x--2--4--x--2--5--7--|

Last Chorus
e|--0--0--0--0--4---4--0--0--0--0--0--0--0--0--0--0--0--0--|
B|--0--0--0--0--4-h-5--0--0--0--0--0--0--0--0--0--0--0--0--|
G|--6--8--9--6--5---4--2--1--4--4--3--6--8--9--3--2--4--9--|
D|--7--9--9--7--6---6--2--2--4--2--4--7--9--9--4--2--4--9--|
A|--7--9--7--7--6---4--0--2--2--4--4--7--9--x--4--0--2--7--|
E|--5--7--0--5--4---4--x--x--x--x--2--5--7--9--2--x--x--x--|
************************************************************

| /   slide up
| \   slide down
| h   hammer-on
| p   pull-off
| ~   vibrato
| +   harmonic
| x   Mute note
| b   Bend
| pb  Pre-bend
| br  Bend release
| pbr Pre-bend release
| brb Bend release bend
Tap to rate this tab
 
# A B C D E F G H I J K L M N O P Q R S T U V W X Y Z