Aj Rafael - When We Say Juicebox tab

I put these tabs up cause when I looked for the tabs myself I could find one that 
had sound as close to the original one..
I looked at his acoustic and listend closly to what chords he played... hope you 
guys like it... :)


Last you can play this half a step down if your a girl or want to do a higher 
version of this song..



x2 over the 2 tab its below means play it twice in that part
^ arrow for later
* half of the part
Intro
e|--------------------------|
B|--------------------------|
G|--9-8-9-8----9-8-9-8—7----|
D|--9-9-9-9----9-9-9-9—7----|
A|--7-7-7-7-----------------|
E|-------------x-x-x-x—x----|

Verse (Part 1)
e|---------------------------------------------|
B|---------------------------------------------|
G|--9-8-9-8----9-8-9-8----2-2----2-2----4-4----|
D|--9-9-9-9----9-9-9-9----2-2----2-2----4-4----|
A|--7-7-7-7-----------------------------2-2----|
E|-------------9-9-9-9----x-x----2-2-----------|
                           x2
    ^                     ^
Something…               easy…


      (Part 2)    
e|-------------------------------------------------|
B|-------------------------------------------------|
G|--9-8-9-8----9-8-9-8----9-8-9-8----2-2----4------|
D|--9-9-9-9----9-9-9-9----9-9-9-9----2-2----4------|
A|--7-7-7-7---------------------------------2------|
E|-------------9-9-9-9----x-x-x-x----2-2-----------|                                     
    ^                     ^          ^
   Baby…                before…     sand…
 
(Verse 2)
    ^                     ^          ^
  Just…                 Smile…     …So hard…  

Chorus
e|-----------------------------------|
B|-----------------------------------|
G|------2---4----9-8----2---4---6----|
D|------2---4----9-9----2---4---6----|
A|----------2----7-7--------2---4----|
E|------x---------------x------------|
        ^               ^
      This…            part…


e|-------------------2-2----------|
B|-------------------2-2----------|
G|------2---4---6----3-3---2---6--|
D|------2---4---6----4-4---2---6--|
A|----------2---4----4-4-------4--|
E|------x------------2-2---x------|
        ^                      ^
       But…                 treating…

{Intro}

{Verse 2} Play verse 1 (part 2) but * where ^




Chorus/Bridge
e|--5----7----7------------------------------------|
B|--5----7----7------------------------------------|
G|--6----8----9----2----4----6----2----4----4-4----|
D|--7----9----9----2----4----6----2----4----2-2----|
A|--7----9----7---------2----4---------2----4-4----|
E|--5----7---------x--------------x---------x-x----|
                        x2
    ^              ^                        ^
  This…          part…                   I know…



e|--2-2---------------5-5----7-7---------------------|
B|--2-2---------------5-5----7-7---------------1-1---|
G|--3-3----2---4---6--6-6----8-8----2-2----4---2-2---|
D|--4-4----2---4---6--7-7----9-9----2-2----4---2-2---|
A|--4-4--------2---4--7-7----9-9---------------------|
E|--2-2----x----------5-5----7-7----2-2----4---------|
    ^                        ^        ^
 You’ve…                   you’ve…  this…

e|------------------------------3--------------------|   
B|------------------------------3-3-3---5------------| Don’t need to put anything on
G|--4—4—4—2---2—2---4-4---2-2---3-2-2---4---2-2------| the B strings just liked it 
D|--4—4—4—2---2—2---4-4---2-2-----2-2---4---2-2------| Higher.
A|--2—0----------------------------------------------|
E|------4—2---2—2---4-4---x-x-----x-x---x---x-x------|
    ^                           ^
 Should…                    He better…

e|--2-2-2-2----5-5—7----5—7—7----5—4—4------------------|
B|--2-2-2-2----5-5—7----5—7—8----5—4—5------------------|
G|--3-3-3-3----6-6—8----6—8—9----6—5—6----2---1---4---4-|
D|--4-4-4-4----7-7—9----7—9—9----7—6—6----2---2---4---2-|
A|--4-4-4-4----7-7—9----7—9—7----7—6—4--------2---2---4-|
E|--2-2-2-2----5-5—7----5—7—0----7—4—0----x-----------x-|
    ^          ^ ^ ^                      ^ 
 Love me…     TooOooOo…                  But…

e|--2-2---5---7---8----2-------------7-|
B|--2-2---5---7---8----2-------------9-|
G|--3-3---6---8---9----3---2-2---4---9-|
D|--4-4---7---9---10---4---2-2---4---8-|
A|--4-4---7---9---10---4---------2---7-|
E|--2-2---5---7---8----2---x-x---------|
    ^             ^                ^
 You’ve…        Gooood…          Right…
Tap to rate this tab
 
# A B C D E F G H I J K L M N O P Q R S T U V W X Y Z