Song name
# A B C D E F G H I J K L M N O P Q R S T U V W X Y Z

Aj Rafael - We Could Happen tab

-------------------------------------------------------------------------------
			     We Could Happen - Aj Rafael
-------------------------------------------------------------------------------
Tabbed by:jhustyne
Email:jbrother1995@yahoo.com

just play it over through the whole song.when the other interludes come,play it 
twice instead of once.

verse(2x)
e|--3-3-3-x-3---x-x-x-x-x---7-7-7-x-7---5-x---3-x--3-3-3-x-3--|
B|--3-3-3-x-3---x-x-x-x-x---8-8-8-x-8---6-x---3-x--5-5-5-x-5--|
G|--x-x-x-x-x---7-7-7-x-7---7-7-7-x-7---5-x---4-x--4-4-4-x-4--|
D|--x-x-x-x-x---7-7-7-x-7---9-9-9-x-9---7-x---3-x--5-5-5-x-5--|
A|--2-2-2-x-2---x-x-x-x-x---7-7-7-x-7---5-x---5-x--3-3-3-x-3--|
E|--3-3-3-x-3---7-7-7-x-7---7-7-7-x-7---5-x---3-x--3-3-3-x-3--|

e|--2-2-2-x-2---5-5-5-x-5---5-5-5-x-5--|
B|--3-3-3-x-3---5-5-5-x-5---7-7-7-x-7--|
G|--2-2-2-x-2---6-6-6-x-6---7-7-7-x-7--|
D|--4-4-4-x-4---5-5-5-x-5---7-7-7-x-7--|
A|--2-2-2-x-2---7-7-7-x-7---5-5-5-x-5--|
E|--2-2-2-x-2---5-5-5-x-5---5-5-5-x-5--|


chorus(2x)
e|--3---x---7--|-3-|
B|--3---x---8--|-4-|
G|--x---7---7--|-3-|
D|--x---7---7--|-5-|
A|--2---x---7--|-3-|
E|--3---7---7--|-3-|

interlude(1x)
e|--3-3-3-x-3---x-x-x-x-x---7-7-7-x-7---5-x---3-x--3-3-3-x-3--|
B|--3-3-3-x-3---x-x-x-x-x---8-8-8-x-8---6-x---3-x--5-5-5-x-5--|
G|--x-x-x-x-x---7-7-7-x-7---7-7-7-x-7---5-x---4-x--4-4-4-x-4--|
D|--x-x-x-x-x---7-7-7-x-7---9-9-9-x-9---7-x---3-x--5-5-5-x-5--|
A|--2-2-2-x-2---x-x-x-x-x---7-7-7-x-7---5-x---5-x--3-3-3-x-3--|
E|--3-3-3-x-3---7-7-7-x-7---7-7-7-x-7---5-x---3-x--3-3-3-x-3--|

e|--2-2-2-x-2---5-5-5-x-5---5-5-5-x-5--|
B|--3-3-3-x-3---5-5-5-x-5---7-7-7-x-7--|
G|--2-2-2-x-2---6-6-6-x-6---7-7-7-x-7--|
D|--4-4-4-x-4---5-5-5-x-5---7-7-7-x-7--|
A|--2-2-2-x-2---7-7-7-x-7---5-5-5-x-5--|
E|--2-2-2-x-2---5-5-5-x-5---5-5-5-x-5--|
Tap to rate this tab
 
# A B C D E F G H I J K L M N O P Q R S T U V W X Y Z