Aj Rafael - We Could Happen tab

Watch the youtube STUDIO version to get the correct timing.
http://www.youtube.com/watch?v=XN4TpBoa5eo&feature=related

Intro/Interludes:
e||-------55~7---10~12--10--7-----5--10~12--10--7--5--------------------5-7~8-7-|
B||--8--8-------8--------------8----------------------8--7-8---7-8----8---------|
G||---------------------------------------------------------7-----6-------------|
D||-----------------------------------------------------------------------------|
A||-----------------------------------------------------------------------------|
E||-----------------------------------------------------------------------------|

   --5---|
   8-----|
   ------|
   ------|
   ------|
   ------|

The Ending Riff:
e||----10~12-10--7-10-15-14-12-10-5~7-10-7~5--------------------------------|
B||--8--------------------------------------88--7-8--7-8-----8-----8--------|
G||------------------------------------------------5----6-------------------|
D||-------------------------------------------------------------------------|
A||-------------------------------------------------------------------------|
E||-------------------------------------------------------------------------|
Tap to rate this tab
 
# A B C D E F G H I J K L M N O P Q R S T U V W X Y Z