Aj Rafael - We Could Happen tab

E|------------------10s12--10-7---------------------------------------------|
B|--8--8-10-10s12-----------------8-10--10s12--10--8--7--5------------------|
G|--------------------------------------------------------------------------|
D|--------------------------------------------------------------------------|
A|--------------------------------------------------------------------------|
E|--------------------------------------------------------------------------|


E|---------------------8-7-----------------|
B|-7-8-----7-8----7-8--------8--10--8------|
G|-----7~------5~--------------------------|
D|-----------------------------------------|
A|-----------------------------------------|
E|-----------------------------------------|
Tap to rate this tab
 
# A B C D E F G H I J K L M N O P Q R S T U V W X Y Z