Song name
# A B C D E F G H I J K L M N O P Q R S T U V W X Y Z

Aj Rafael - We Could Happen chords

Highlighted       Show chord diagrams
Set the scroll bar to 2 1/12 or 3.

I play the G like this, but its your choice. Otherwise follow the tab (:
E|---3---|
B|---3---|
G|-------|
D|-------|
A|---2---|
E|---3---|
If there's any concerns email me @ kayyemess@gmail.com , thanks!


Intro. -

E|----------------10/12-10-7--------10/12-10--------------------|
B|--8--8-10-10/12---------------8-10---------12----10-8---7-8---|
G|------------------------------------------------------------7-|
D|--------------------------------------------------------------|
A|--------------------------------------------------------------|
E|--------------------------------------------------------------|


E|----------------7/8-7----------|
B|--7-8------7-8---------8-10-8--|
G|-------5~----------------------|
D|-------------------------------|
A|-------------------------------|
E|-------------------------------|



Verse 1 -

G             Bm
i'll hold the door

            Em          Dm              C
please come in and just sit here for a while

        Bm          A                D7         G
this is my way of telling you i need you in my life

         Bm                Em
it's so cold without your touch

          Dm                C
i've been dreaming way too much

         Bm           A      D7
can we just turn this into reality


Chorus -

      G                           D
cuz ive been thinking bout you lately

               Em                C            G
maybe you can save me from this crazy world we live in

                D
I know we could happen cuz you know

      Em               C 
that ive been feeling you, I know you want me...


Instrumental -

E|----------------10/12-10-7--------10/12-10--------------------|
B|--8--8-10-10/12---------------8-10---------12----10-8---7-8---|
G|------------------------------------------------------------7-|
D|--------------------------------------------------------------|
A|--------------------------------------------------------------|
E|--------------------------------------------------------------|


E|----------------7/8-7----------|
B|--7-8------7-8---------8-10-8--|
G|-------5~----------------------|
D|-------------------------------|
A|-------------------------------|
E|-------------------------------|



Verse 2 -

G                  Bm        Em
storms they will come but i know

          Dm             C
that the sun will shine again

           Bm          A              D7
he's my friend and he says that we belong together

G            Bm                Em
i'll sing a song to break the ice

         Dm                   C
just a smile from you would suffice

         Bm       A                 D7
its not me being nice girl this is real tonight


Chorus -

      G                           D
cuz ive been thinking bout you lately

               Em                C              G
maybe you can save me from this crazy world we live in

                D
I know we could happen cuz you know

      Em               C 
that ive been feeling you, I know you want me...


Bridge-

Em         Bm7     G               A
there's no other, there's no other love

Em       Bm7     G       A
that I'd rather have... no.

Em          Bm7    G                   A 
there ain't no one there ain't no one else

C                A
i want you for myself.


Chorus - (x2, first time palm mute first half before ^)
^= Start strumming

      G                           D
cuz ive been thinking bout you lately

               Em                C              ^G
maybe you can save me from this crazy world we live in

                D
I know we could happen cuz you know

      Em               C 
that ive been feeling you, I know you want me...


too...      I know you want me too

E|----------------10/12-10-7--------10/12-10---------------------|
B|--8--8-10-10/12---------------8-10---------12----10-8---7-8----|
G|------------------------------------------------------------7--|
D|---------------------------------------------------------------|
A|---------------------------------------------------------------|
E|---------------------------------------------------------------|

E|------------7/8-7--------10-12/10-----10-12/15-12-10-----------|
B|--7-8---7-8-------8-10-8----------12-----------------10/12-10--|
G|------5--------------------------------------------------------|
D|---------------------------------------------------------------|
A|---------------------------------------------------------------|
E|---------------------------------------------------------------|


E|--------------------------|
B|--8-7/8---7/8------7/8----|
G|------ -7-----5--------7--|
D|--------------------------|
A|--------------------------|
E|--------------------------|

  C    D    G
Tap to rate this tab
 
# A B C D E F G H I J K L M N O P Q R S T U V W X Y Z