Song name
# A B C D E F G H I J K L M N O P Q R S T U V W X Y Z

Aj Rafael - My Soldier tab

AJ Rafael - My Soldier

I Now have Full song tabs at http://www.youtube.com/user/anjelloguitar
Subscribe for more tabs


|------------------------------------------------------|
|---------2----2-------4---------2---------------------|
|---------1----1---4-4-4-4---2-2-2-2---1-----2-s-4--4--|
|---------2-2--2---4-4-------2-2-------2-2---2-s-4--4--|
|------0------0--------4---------2-----2---------------|
|--0h2-------------4-4-------2---------------2-s-4--4--|

|-------------------------------------------------|
|---------2----2-------4---------2----------------|
|---------1----1---4-4-4-4---2-2-2-2---1----2--4--|
|---------2-2--2---4-4-------2-2-------2----2--4--|
|------0------0--------4---------2-----2----------|
|--0h2-------------4-4-------2--------------2--4--|

|------------------------------------------------------|
|---------2----2-------4---------2------2-4-2---2-2----|
|---------1----1---4-4-4-4---2-2-2-2----2-2-2-1-1------|
|---------2-2--2---4-4-------2-2--------------2-2------|
|------0-----0---------4---------2------2-2-2-2--------|
|--0h2-------------4-4-------2-------------------------|


|--------------------------------------------------|
|---------2----2-------4---------2------2----2-2---|
|---------1----1---4-4-4-4---2-2-2-2----2--1-1-----|
|---------2-2--2---4-4-------2-2-----------2-2-----|
|------0-----0---------4---------2------2--2-------|
|--0h2-------------4-4-------2---------------------|


http://www.youtube.com/user/anjelloguitar
Tap to rate this tab
# A B C D E F G H I J K L M N O P Q R S T U V W X Y Z