Akala - Find No Enemy tab

Main Riff

e|------------------|----------------|-----------------|----------------------|
B|-----5------------|-----8----------|-----5-----------|-----5----------------|
G|-------5----------|-------9-----7-9|-------5---------|-------7--------------|
D|--------------7-7-|----------------|--------------7-7|--------------5-5-----|
A|-5-5------5-5-----|-8-8-----8-8----|-5-5------5-5----|----------------------|
E|------------------|----------------|-----------------|-6-6------3-3---------|

Repeated Throughout

Intro Solo
e|------------------------------------------------------------------------|
B|------------------13-13-13-10v----13h15-15h17---18p17p15v---------------|
G|-7s9-9s10------10-------------------------------------------------------|
D|------------------------------------------------------------------------|
A|------------------------------------------------------------------------|
E|------------------------------------------------------------------------|

Tap to rate this tab
 
# A B C D E F G H I J K L M N O P Q R S T U V W X Y Z