Song name
# A B C D E F G H I J K L M N O P Q R S T U V W X Y Z

Akash - Rock Funda tab

----------------------------------------------------------------------------
			   Rock funda - Akash
----------------------------------------------------------------------------
Tabbed by:ahsen khan
Email:rocking_lead_guitar@hotmail.com

Tuning:standard

well okay this is there new song which has really nice riffs and its nice to play its 
there new album its easy to play so i decided to tab it here you go....

Riff#1:

e|-------------------------------------------------------------------------|
B|-------------------------------------------------------------------------|
G|-------------------------------------------------------------------------|
D|-7-5-3-3-57--7-5-7-10-10-97----------------------------------------------|
A|-7-5-3-3-57--7-5-7-10-10-97----------------------------------------------|
E|-5-3-3-3-35--5-3-5-8--8--75----------------------------------------------|

Verse:

play each chord palm muted and 8 times and listen to the song to get the rhythm
e|-------------------------------------------------------------------------|
B|-------------------------------------------------------------------------|
G|-------------------------------------------------------------------------|
D|-7--5--------------------------------------------------------------------|
A|-7--5--------------------------------------------------------------------|
E|-5--3--------------------------------------------------------------------|

Chorus:
let each chord ring and repeat the pattern 2 times
e|-------------------------------------------------------------------------|
B|-------------------------------------------------------------------------|
G|-------------------------------------------------------------------------|
D|-7------5------10-----7--------------------------------------------------|
A|-7------5------10-----7--------------------------------------------------|
E|-5------3------8------5--------------------------------------------------|

then play Riff#1 twice then play riff#2

Riff#2
                    *play palm muted each chord 8 times*
   all of them downstrokes
e|-------------------------------------------------------------------------|
B|-------------------------------------------------------------------------|
G|-------------------------------------------------------------------------|
D|-77--55--33--55---*7--5--3--1*-------------------------------------------|
A|-77--55--33--55---*7--5--3--1*-------------------------------------------|
E|-55--33--33--33---*5--3--3--1*-------------------------------------------|

then play Riff#3 once and then play Riff#1 twice

Riff#3:

e|-------------------------------------------------------------------------|
B|-------------------------------------------------------------------------|
G|-------------------------------------------------------------------------|
D|-7-5-7-7-5-7--7-5-7-10-10-97--7-5-7-7-5-7-7-5-7-3-3-3-3--7-5-7-7-5-7-----|
A|-7-5-7-7-5-7--7-5-7-10-10-97--7-5-7-7-5-7-7-5-7-3-3-3-3--7-5-7-7-5-7-----|
E|-5-3-5-5-3-5--5-3-5-8--8--75--5-3-5-5-3-5-5-3-5-3-3-3-3--5-3-5-5-3-5-----|

e|-------------------------------------------------------------------------|
B|-------------------------------------------------------------------------|
G|-------------------------------------------------------------------------|
D|-7-5-7-10-10-97--7-5-7-7-5-7-7-------------------------------------------|
A|-7-5-7-10-10-97--7-5-7-7-5-7-7-------------------------------------------|
E|-5-3-5-8--8--75--5-3-5-5-3-5-5-------------------------------------------|

so the order of the song is:

Riff#1 (x4)
verse  (x5)
Chorus (x2)
Riff#1 (x2)
Riff#2 (x1)
Riff#3 (x1)
Riff#1 (x2)
verse  (x5)
Chorus (x2)
Rapping part
Chorus (x4)
Riff#1 (x6) on the sixth times let the last chord rind for a while

wow now my head seriously hurts i pretty much explained everything now play and have fun 
it crazy song yup anyways later ........... :p
============================================================================
Tap to rate this tab
 
# A B C D E F G H I J K L M N O P Q R S T U V W X Y Z