Song name
# A B C D E F G H I J K L M N O P Q R S T U V W X Y Z

Akash - Ji Liya tab

Highlighted       Show chord diagrams
INTRO!!

PIANO PLAYING


POWER CHORDSS ..

C#M A B ..

/= slide down
\= slide up

INTRO power chords!!

C#M .. /.. E .. C#M\ ..A\ .. B ...

C#M ../... E .. C#M\ ..A\ ..C#M..

DEKHE JO KHWAAB NA POORE HUE ...
e--------------------------------------------|
b----------0-----------0------------0--------|
g------6-------6------------2----------4-----|
d----6---6-----------2-----------4-----------|
a-4--------------0------------2--------------|
e--------------------------------------------|


KIA KERUN ........KAISE JIYOON ..

e--------------|---------------|
b---------0----|--------0------|
g-----------2--|----------4----|
d-------2------|-----4---------|
a----0---------|-2-------------|
e--------------|---------------|

CHORUS..

DISTORTION !!

C#M ... A .... B ...

BRIDGE!!
with palm muting..

for acoustic guitar:

c#m(bar) .. G#maj(bar)... f#major(bar).... AMAJ(bar).. G#mjor(bar)..

these chords are played on distoriton in song with palm mute !!


then ..
AA F#.F#.. (4 times)

SLIDE DOWN ..
F#.. A ... B... C#M

CHORUS :


JI LIYAA PI LIYAA ZEHER XINDAGI KAA!!
C#M ... A .... B ...

need comments .. and tell me if somethin is missing except lead []

www.akashtheband.com
Tap to rate this tab
# A B C D E F G H I J K L M N O P Q R S T U V W X Y Z