Song name
# A B C D E F G H I J K L M N O P Q R S T U V W X Y Z

Akercocke - Leviathan tab

Standard EADGBe

The intro consists of these two little riff things.
They're tabbed out here an octave higher than they're actually played because I don't 
a seven-string.
It still works though. Oh, and listen to the song for the changes.

------------|
------------|
------------|
------------|
13----13----|
---12----11-|

------------|
------------|
------------|
------------|
15----15----|
---14----13-|


Then this little phrase here. The timing on this is a little weird.
I tried to separate it to make sense.
It goes in a group of 2, then 1, then 3, then 1, then 2.
Then hold on the F.

--------------------------------|
--------------------------------|
--------------------------------|
--------------------------------|
-4-3---2---1-0------------------|
---------------4---3---2-1------|

Then hit an F5 chord and go back to the intro riff, but leave off the first A# (13).

For the part where he sings "Out of the depths of the sea,"
the note that's being played is an F, (I'm pretty sure, although it might be an E)
so you can hit whatever you want there.
I usually play an F5 chord:

-----------------|
-----------------|
-----------------|
3----------------|
3----------------|
1----------------|


Then back to the second part of the intro.
After this a couple more times, (listen to find out)
the little shuffle thing is:
-----------------------|
-----------------------|
-----------------------|
-6br-------6br---------|
-----7-7-5-----7-5-7---|
---------------------0-|

Do that a few times, and that's as far as I got.

I'll try and finish later, if you have any suggestions please post them.
I don't have the best ear, and I was getting tired of not finding Neal Morse tabs online,
so I decided to register and do my best to provide some of the tabs myself.
Any help would be greatly appreciated...
Tap to rate this tab
# A B C D E F G H I J K L M N O P Q R S T U V W X Y Z