Song name
# A B C D E F G H I J K L M N O P Q R S T U V W X Y Z

Akia - California tab

Song: California
Artist: Akia
Tabbed by: Anthony Vu (ahvu@ucsd.edu)

This is basically the same riff over and over, but
there are slight differences between some of the parts.
This is such a chill song. Enjoy!


Intro (0:00)

|-------3-----------1-------------------------------1-|
|-----3-----------1-----------3-4---------1-3-----1---|
|---3-----------2-----------3-----------2-------2-----|
|-5-----------3-----------5-----------3-------3-------|
|-----------------------------------------------------|
|-----------------------------------------------------|


|-------3-----------1---------------------------5h6p5---|
|-----3-----------1-----------3-4---------1-3---------6-|
|---3-----------2-----------3-----------2---------------|
|-5-----------3-----------5-----------3-------3---------|
|-------------------------------------------------------|
|-------------------------------------------------------|

Verse 1 (0:21)

|-3-----3-----------1-------------------------------1--|
|-----3-----------1-----------3-4---------1-3-----1----|
|---3-----------2-----------3-----------2-------2------|
|-5-----------3-----------5-----------3-------3--------|
|------------------------------------------------------|
|------------------------------------------------------|

|-------3-----------1---5h6p5-----------------------------1-|
|-----3-----------1-----------6-----3-4---------1-3-----1---|
|---3-----------2-----------------3-----------2-------2-----|
|-5-----------3-----------------5-----------3-------3-------|
|-----------------------------------------------------------|
|-----------------------------------------------------------|

Chorus (0:42)

|-------3-----------1-------------------------------1--| 
|-----3-----------1-----------3-4---------1-3-----1----|
|---3-----------2-----------3-----------2-------2------|
|-5-----------3-----------5-----------3-------3--------|
|------------------------------------------------------|
|------------------------------------------------------|


|-------3-----------1---------------------------5h6p5---|
|-----3-----------1-----------3-4---------1-3---------6-|
|---3-----------2-----------3-----------2---------------|
|-5-----------3-----------5-----------3-------3---------|
|-------------------------------------------------------|
|-------------------------------------------------------|

Verse 2 (1:03)

|-3-----3-----------1-------------------------------1--| 
|-----3-----------1-----------3-4---------1-3-----1----|
|---3-----------2-----------3-----------2-------2------|
|-5-----------3-----------5-----------3-------3--------|
|------------------------------------------------------|
|------------------------------------------------------|


|-------3-----------1---------------------------5h6p5---|
|-----3-----------1-----------3-4---------1-3---------6-|
|---3-----------2-----------3-----------2---------------|
|-5-----------3-----------5-----------3-------3---------|
|-------------------------------------------------------|
|-------------------------------------------------------|

Chorus (1:24) 

|-------3-----------1-------------------------------1--| 
|-----3-----------1-----------3-4---------1-3-----1----|
|---3-----------2-----------3-----------2-------2------|
|-5-----------3-----------5-----------3-------3--------|
|------------------------------------------------------|
|------------------------------------------------------|


|-------3-----------1---------------------------5h6p5---|
|-----3-----------1-----------3-4---------1-3---------6-|
|---3-----------2-----------3-----------2---------------|
|-5-----------3-----------5-----------3-------3---------|
|-------------------------------------------------------|
|-------------------------------------------------------|

Verse 3 (1:45)

|-3-----3-----------1-------------------------------1--| 
|-----3-----------1-----------3-4---------1-3-----1----|
|---3-----------2-----------3-----------2-------2------|
|-5-----------3-----------5-----------3-------3--------|
|------------------------------------------------------|
|------------------------------------------------------|


|-------3-----------1---------------------------5h6p5---|
|-----3-----------1-----------3-4---------1-3---------6-|
|---3-----------2-----------3-----------2---------------|
|-5-----------3-----------5-----------3-------3---------|
|-------------------------------------------------------|
|-------------------------------------------------------|

Bridge (2:06)

|-3-----3-----------1-------------------------------1--|
|-----3-----------1-----------3-4---------1-3-----1----|
|---3-----------2-----------3-----------2-------2------|
|-5-----------3-----------5-----------3-------3--------|
|------------------------------------------------------|
|------------------------------------------------------|

|-------3-----------1---5h6p5-----------------------------1-|
|-----3-----------1-----------6-----3-4---------1-3-----1---|
|---3-----------2-----------------3-----------2-------2-----|
|-5-----------3-----------------5-----------3-------3-------|
|-----------------------------------------------------------|
|-----------------------------------------------------------|

Chorus (2:26)

|-------3-----------1-------------------------------1--| 
|-----3-----------1-----------3-4---------1-3-----1----|
|---3-----------2-----------3-----------2-------2------|
|-5-----------3-----------5-----------3-------3--------|
|------------------------------------------------------|
|------------------------------------------------------|


|-------3-----------1---------------------------5h6p5---|
|-----3-----------1-----------3-4---------1-3---------6-|
|---3-----------2-----------3-----------2---------------|
|-5-----------3-----------5-----------3-------3---------|
|-------------------------------------------------------|
|-------------------------------------------------------|

Chorus (2:46)


|-3-----3-----------1-------------------------------1--| 
|-----3-----------1-----------3-4---------1-3-----1----|
|---3-----------2-----------3-----------2-------2------|
|-5-----------3-----------5-----------3-------3--------|
|------------------------------------------------------|
|------------------------------------------------------|


|-------3-----------1---------------------------5h6p5---|
|-----3-----------1-----------3-4---------1-3---------6-|
|---3-----------2-----------3-----------2---------------|
|-5-----------3-----------5-----------3-------3---------|
|-------------------------------------------------------|
|-------------------------------------------------------|

Outro (3:07)


|-3-----3-----------1-------------------------------1--| 
|-----3-----------1-----------3-4---------1-3-----1----|
|---3-----------2-----------3-----------2-------2------|
|-5-----------3-----------5-----------3-------3--------|
|------------------------------------------------------|
|------------------------------------------------------|

|-------3-----------1---5h6p5-----------------------------1-|
|-----3-----------1-----------6-----3-4---------1-3-----1---|
|---3-----------2-----------------3-----------2-------2-----|
|-5-----------3-----------------5-----------3-------3-------|
|-----------------------------------------------------------|
|-----------------------------------------------------------|
Tap to rate this tab
 
# A B C D E F G H I J K L M N O P Q R S T U V W X Y Z