Guitaretab - guitar tabs
Song name
# A B C D E F G H I J K L M N O P Q R S T U V W X Y Z

Aking - Safe As Houses tab

aKING  Safe as Houses (intro)

e -----------------------------------------------------------------|
B -----------------------------------------------------------------|
G -----------------------------------------------------------------|
D ---------------------------------2-------------2---4---2---------|
A ------0---2---2/4----4---2---4---------2---4--------------4---2--|
E --4--------------------------------------------------------------|
[ Tab from: http://www.guitaretab.com/a/aking/177879.html ]
e ---------------------------------------------------------------|
B ---------------------------------------------------------------|
G ---------------------------------------------------------------|
D ---------------------------------------------------------------|
A -----0-----2--4----2----0--2-----------0---4---2------4--------|
E ----------------------------------0------------------------4b--|


 b -  bend
 /  - slide up


By Michal
Related for Safe As Houses tab