Song name
# A B C D E F G H I J K L M N O P Q R S T U V W X Y Z

Akira Yamaoka - Please Love Meonce More tab

Title: Please Love Me...Once More
Written By: Akira Yamaoka
Album: Silent Hill 3 OST


e|---------------------------------------------------------------------------|
B|------4-3-1--------4-6-4-3-1-----------------------------------------------|
G|---------------------------------------------------------------------------|
D|----5-----------5----------------------------------------------------------|
A|--3-----------3------------------------------------------------------------|
E|---------------------------------------------------------------------------|
              2X
e|---------------------------------------------------------------------------|
B|------6-4-6--------6-8-4-3-1-----------------------------------------------|
G|---------------------------------------------------------------------------|
D|----5-----------5----------------------------------------------------------|
A|--3-----------3------------------------------------------------------------|
E|---------------------------------------------------------------------------|
                  Repeat as required.

That should be correct....at least it sounds correct.

Enjoy.
Tap to rate this tab
# A B C D E F G H I J K L M N O P Q R S T U V W X Y Z