Song name
# A B C D E F G H I J K L M N O P Q R S T U V W X Y Z

Akira Yamaoka - Youre Not Here tab

I noticed that all the tabs here had the intro wrong, so I made this. should be 100% right.


guitar 1
----------------|----------11-----|
----------------|------8----------|
-------11-------|-----------------|
---11-----------|-----------------|
----------------|-----------------|
----------------|-----------------|

guitar 2
-------------|     -------------|
-------------|     -------------|
-------------| X4  -------------| X4    --- repeat for most of song
-------------|     -------------|
------6-4-6--|     ------9-7-9--|
---4---------|     ---7---------|
Tap to rate this tab
 
# A B C D E F G H I J K L M N O P Q R S T U V W X Y Z