Song name
# A B C D E F G H I J K L M N O P Q R S T U V W X Y Z

Akira Yamaoka - Promise tab

Just the lead part so far, and i think there's a bit i've missed, but i figured out this much

In the Key of D Minor

"Main Lead"
-------------------------------------------------------------------|
-------------------------------------------------------13-13-12----|
-/12-12-12\10-9-9--7-7/9-7\5-5----/12-12-12-14-12-12---------------|
-------------------------------------------------------------------|
-------------------------------------------------------------------|
-------------------------------------------------------------------|

"Bridge"
------------------10-------------------------------10------10-12------------|
-13--12-10-12-13----13-12--13-12-10-12-13--12-13------13--------------------|
----------------------------------------------------------------------------|
----------------------------------------------------------------------------|
----------------------------------------------------------------------------|
----------------------------------------------------------------------------|

Listen to the Track for the timing
Tap to rate this tab
# A B C D E F G H I J K L M N O P Q R S T U V W X Y Z