Song name
# A B C D E F G H I J K L M N O P Q R S T U V W X Y Z

Akira Yamaoka - Dog Ending tab

Silent Hill 2 - Dog Ending guitar tab



Intro/Refrain
E|-----------------------|
B|-----10-----10-----10--|
G|-----10-----10-----10--|
D|-----------------------|
A|--8------8------8------|
E|-----------------------|

---------------------------------------------------|
-----10-----10----10-----10-----8--8--8----10------|
-----10-----10----10--10-10-10-------------10--10--|
---------------------------------------------------|
--8------8------8-----8------8---------------8---8-|
-------------------------------8--8--8--8----------|

[Verse]
E|----------------------------------------------------------|
B|----------------------------------------------------------|
G|----------------------------------------------------------|
D|--10--10--10--------------------12--12--12--12--10--------|
A|----------------12--12--12--------------------------------|
E|----------------------------------------------------------|

E|-------------------------------------------------------------|
B|-------------------------------------------------------------|
G|------------------------------------10--10--10--9--10--------|
D|--12--12--12--12--10--10--10--10-----------------------------|
A|-------------------------------------------------------------|
E|-------------------------------------------------------------|

Chorus
----------------------------------------8--------|
--8--9--11----11--9--8------9--9--9--9-----------|
-------------------------------------------------|
-------------------------------------------------|
-------------------------------------------------|
-------------------------------------------------|

----------------------------------------11-------|
--8--9--11----11--9--8------9--9--9--9-----------|
-------------------------------------------------|
-------------------------------------------------|
-------------------------------------------------|
-------------------------------------------------|

|--------------------------------------------------------|
|--11----------11--13----------11----------11--13--------|
|--------10--------------------------10------------------|*
|--------------------------------------------------------|
|--------------------------------------------------------|*
|--------------------------------------------------------|



Found an arrangement done by CL0v3R (http://tabber.blogspot.com/), thought he got a few 
things wrongs, fixed them, decided to upload it on UC.
2/21/05-8/21/13
Tap to rate this tab
# A B C D E F G H I J K L M N O P Q R S T U V W X Y Z