Song name
# A B C D E F G H I J K L M N O P Q R S T U V W X Y Z

Akira Yamaoka - End Of Small Sanctuary tab

  Composer: Akira Yamaoka
  Tuning : Eb-Ab-Db-Gb-Bb-Eb


This bit runs throughout the whole song
Guitar 1
||----------------------|----------------------|----------------------|
||--0----0----3----0----|--0----0----3----0----|--0----0----3----0----|
||--0----0----0----0----|--0----0----0----0----|--0----0----0----0----|
||--2----2----2----2----|--2----2----2----2----|--2----2----2----2----|
||--3----3----3----3----|--3----3----3----3----|--3----3----3----3----|
||----------------------|----------------------|----------------------|


                
||----------------------||
||--0----0----3----0----||
||--0----0----0----0----||
||--2----2----2----2----||
||--3----3----3----3----||
||----------------------||


Guitar 2 (With Delay)        X4                      X4
||----0-----0-----0-----0----||----------------------||--12-------------------||
||------3-----3-----3-----3--||-----1212-------------||-----12----------------||
||--2-----2-----2-----2------||----------1212--------||--------------12-12----||
||---------------------------||----------------------||-----------------------||
||---------------------------||----------------------||-----------------------||
||---------------------------||----------------------||-----------------------||


Guitar 3
||---------------------------||----------------------||-----------------------||
||---------------------------||------3---------3-----||-----------------------||
||---------------------------||--------0---------0---||-----------------------||
||---------------------------||----2-----2---2-----2-||-----------------------||
||---------------------------||--3---------3---------||-----------------------||
||---------------------------||----------------------||-----------------------||


Simple as that really, enjoy (:
Tap to rate this tab
# A B C D E F G H I J K L M N O P Q R S T U V W X Y Z