Song name
# A B C D E F G H I J K L M N O P Q R S T U V W X Y Z

Akira Yamaoka - Please Love Me Once More tab

-------------------------------------------------------------------------------
			     SONG NAME - Band Name
-------------------------------------------------------------------------------
Tabbed by:me
Email:silenceinfog@yahoo.com

Tuning:standard

e|---------------------------------------------------------------------------|
B|---------------------------------------------------------------------------|
G|------8-7-5--------8-10-8-7-5----------------------------------------------|
D|---------------------------------------------------------------------------|
A|---0------------0----------------------------------------------------------|
E|-0------------0------------------------------------------------------------|
              2X
e|---------------------------------------------------------------------------|
B|---------------------------------------------------------------------------|
G|----10-8-10-------10-12-8-7-5----------------------------------------------|
D|---------------------------------------------------------------------------|
A|--0-------------0----------------------------------------------------------|
E|-0-------------0-----------------------------------------------------------|
                  2X
Tap to rate this tab
 
# A B C D E F G H I J K L M N O P Q R S T U V W X Y Z