Song name
# A B C D E F G H I J K L M N O P Q R S T U V W X Y Z

Akira Yamaoka - Theme Of Laura tab

-------------------------------------------------------------------------------
			     Silent Hill 2 - Theme of Laura - Akira Yamaoka
-------------------------------------------------------------------------------
Tabbed by: Solced
Email: Solced@gmx.net

Tuning: E A D G B e

last update on 25.09.08<<<<




  Main Chords 
  Just the chords, i dont tabbed out how often you´ve to strum each chord!

  The Main Chords - played the most of the time with the whole song


  Listen to the Record to find out the right timing and rythm


  Main Chords:

e|-(0)---(0)---(0)-(0)-(0)-(0)-----(0)---(0)---(0)-(0)-(0)-(0)--------------|
B|-(0)---(0)---(0)-(0)-(0)-(0)-----(0)---(0)---(0)-(0)-(0)-(0)--------------|
G|--0-----0-----0---0---0---0-------0-----0-----0---0---0---0---------------|
D|--2-----4-----5-h-7---5---4-------2-----4-----5-h-7---5---4---------------|
A|--3-----5-----7---7---7---5-------3-----5-----7---7---7---5---------------|
E|--------------------------------------------------------------------------|




  solo - pt 1 - at 00:13

e|--------------------------------------------------------------------------|
B|--------------------------------12-12--10------12---12---12---------------|
G|----9----11---12-------11--9---------------9------9----9------9-9\--------|
D|-9-----9-----9------------------------------------------------------------|
A|--------------------------------------------------------------------------|
E|--------------------------------------------------------------------------|




  solo - pt 2 - at 00:22

e|--------------------------------------------------------------------------|
B|--------3/5---------------------------------3-----------------------------|
G|------------4~--2-2/4-----------4-2-----------4---------------------------|
D|----2-----------------5----4-5-------2-2/5--------------------------------|
A|--3-----------------------------------------------------------------------|
E|--------------------------------------------------------------------------|

e|--------------------------------------------------------------------------|
B|--------3/5--------------------------3-3/5--------------------------------|
G|------------4~--2-2/4-----------4-2-----------4---------------------------|
D|----2-----------------5----4-5--------------------------------------------|
A|--3-----------------------------------------------------------------------|
E|--------------------------------------------------------------------------|




  solo - pt 3  - at 00:32

  Notes for Tremolo Picking

e|----12-12-12-12-12---14-14-14-14-14---15-15-15-15-15--------19------------|
B|---------------------------------------------------------17---------------|
G|--------------------------------------------------------------------------|
D|--------------------------------------------------------------------------|
A|--------------------------------------------------------------------------|
E|--------------------------------------------------------------------------|

e|----12-12-12-12-12---10-10-10-10-10---12-12-12-12-12---14-14-14-14-14-----|
B|--------------------------------------------------------------------------|
G|--------------------------------------------------------------------------|
D|--------------------------------------------------------------------------|
A|--------------------------------------------------------------------------|
E|--------------------------------------------------------------------------|




  Chords for the Bridge - at 00:42

  Listen to the Record to find out the right timing and rythm


e|----0----1-------------------------0----1---------------------------------|
B|----0----0-------------------------0----0---------------------------------|
G|----0----0--
                    
Tap to rate this tab
# A B C D E F G H I J K L M N O P Q R S T U V W X Y Z