Song name
# A B C D E F G H I J K L M N O P Q R S T U V W X Y Z

Akira Yamaoka - Room Of Angel tab

-------------------------------------------------------------------------------
			     Room of Angels - Akira Yamaoka
-------------------------------------------------------------------------------
Tabbed by: J.A. Montfort
Email: josafat_11@hotmail.com

Tuning: Standard (EADGBe)

This song needs two guitars; one for the melody notes and another for the background 
Note that this is how each one of them is played, but not how many times.

*Melody*

e|--------------------------------------------------------------1-----------|
B|----3---4--3-4-3--1---------3---4--3-4-3--1--------3---4--3-4---3------3--|
G|-0------------------0----0-------------------0---0-----------------3--0---|
D|--------------------------------------------------------------------------|
A|--------------------------------------------------------------------------|
E|--------------------------------------------------------------------------|

e|------------------------------------------------------------------------1-|
B|----1--3--------1-3----4--3-4-3--1-------3---3--4-3-4-3--1----3---4-3-4---|
G|-0-3-------0-3---------------------0---0--------------------0-------------|
D|--------------------------------------------------------------------------|
A|--------------------------------------------------------------------------|
E|--------------------------------------------------------------------------|

e|--------------------------------1--3-1---3--1---1---------------------1---|
B|-3-------3-----------1--1--3-4--------4-----------3-------1--3-4-3-4---4--|
G|----3--0-----0-3--0-3---------------------------------0--3----------------|
D|--------------------------------------------------------------------------|
A|--------------------------------------------------------------------------|
E|--------------------------------------------------------------------------|

e|--------1--3--1----3--1---------------------------------------------------|
B|-1-3--4---------4--------4-3-------1--3-4-3-1-3-1----1----1----1----------|
G|-------------------------------0-3-----------------3----3----3------------|
D|--------------------------------------------------------------------------|
A|--------------------------------------------------------------------------|
E|--------------------------------------------------------------------------|

*Background music*

e|--------------------------------------------------------------------------|
B|--------------------------------------------------------------------------|
G|-----5-------5-------5-------5-------5-------5-------5-------5------------|
D|---5---5---5---5---5---5---5---5---5---5---5---5---5---5---5---5----------|
A|-3-------3-------3-------3-------3-------3-------3-------3----------------|
E|--------------------------------------------------------------------------|

e|--------------------------------------------------------------------------|
B|--------------------------------------------------------------------------|
G|-----3-------3-------3---------3---------3--------3-------3---------------|
D|---3---3---3---3---3---3-----3---3-----3---3----3---3---3---3-------------|
A|-1-------1-------1---------1---------1--------1--------1------1-----------|
E|--------------------------------------------------------------------------|

e|--------------------------------------------------------------------------|
B|--------------------------------------------------------------------------|
G|--------------------------------------------------------------------------|
D|------5--------5--------5-------5-------5-------5-------------------------|
A|----5---5----5----5---5---5---5---5---5---5---5---5-----------------------|
E|--3--------3--------3-------3-------3-------3-----------------------------|

There you go. Enjoy.
Tap to rate this tab
# A B C D E F G H I J K L M N O P Q R S T U V W X Y Z