Guitaretab - guitar tabs
Song name
# A B C D E F G H I J K L M N O P Q R S T U V W X Y Z

Akissforjersey - The Flood tab

---------------------------------------------------------------------------
                                 The Flood
                               Akissforjersey
---------------------------------------------------------------------------

Hello, Iím here with another tab for Akissforjersey. This song isnít one of the best,
the Chorus just catches my ears every time. Itís kind of cool to listen to after a hard
at school, Patrick Henry High School, and so I have worked on this for a bit and got a 
idea to the guitar parts to my perspective, and hopefully to yours. Enjoy!

Username: dkm817 (same on X box live)
Email: guitardrums@rockfan.com

Guitar 1 Rhythmic (C G C F A D)
Guitar 2 Lead     (C G C F A D)

Verse 1

Guitar 1
D-------------------------------------------------------|
A-------------------------------------------------------|
F-------------------------------------------------------|
C-3~-3~-3-3-3~-3~-3~-3-3~-3-3-3-3~-3~-3-3-3~-6~-6-6-6-6-|
G-3~-3~-3-3-3~-3~-3~-3-3~-3-3-3-3~-3~-3-3-3~-6~-6-6-6-6-|
C-3~-3~-3-3-3~-3~-3~-3-3~-3-3-3-3~-3~-3-3-3~-6~-6-6-6-6-|

Guitar 2
D--------------------------------------------------------------|
A--------------------------------------------------------------|
F-6~----6------6~------6~-------6~----6------7/13~-13-13-13-13-|
C-6~-3~-6-3-3~-6~-3~-3-6~-3-3-3-6~-3~-6-3-3~-x/x---x--x--x--x--|
G-4~-3~-4-3-3~-4~-3~-3-4~-3-3-3-4~-3~-4-3-3~-5/11~-11-11-11-11-|
C----3~---3-3~----3~-3----3-3-3----3~---3-3~-------------------|

Guitar 1
D---------------------------------------------------------------|
A---------------------------------------------------------------|
F---------------------------------------------------------------|
C-3~-3~-3-3-3~-3~-3~-3-3~-3-3-3-3~-3~-3-3-3~-6~-6-6-6-6-6-6-6-6-|
G-3~-3~-3-3-3~-3~-3~-3-3~-3-3-3-3~-3~-3-3-3~-6~-6-6-6-6-6-6-6-6-|
C-3~-3~-3-3-3~-3~-3~-3-3~-3-3-3-3~-3~-3-3-3~-6~-6-6-6-6-6-6-6-6-|

Guitar 1 continued
D-----------------|
A-----------------|
F-----------------|
C-5-5-5-5-5-5-5-5-|
G-5-5-5-5-5-5-5-5-|
C-5-5-5-5-5-5-5-5-|

Guitar 2
D--------------------------------------------------------------------------|
A--------------------------------------------------------------------------|
F-6~----6------6~------6~-------6~----6------7/13~-13-13-13-13-13-13-13-13-|
C-6~-3~-6-3-3~-6~-3~-3-6~-3-3-3-6~-3~-6-3-3~-x/x---x--x--x--x--x--x--x--x--|
G-4~-3~-4-3-3~-4~-3~-3-4~-3-3-3-4~-3~-4-3-3~-5/11~-11-11-11-11-11-11-11-11-|
C----3~---3-3~----3~-3----3-3-3----3~---3-3~-------------------------------|

Guitar 2 continued
D-------------------------|
A-------------------------|
F-12-12-12-12-12-12-12-12-|
C-x--x--x--x--x--x--x--x--|
G-10-10-10-10-10-10-10-10-|
C-------------------------|

Chorus

Guitar 1
D-------------------------------------------------|
A-------------------------------------------------|
F-------------------------------------------------|
C-3-3-3-3-3-3-3-3-8-8-8-8-8-8-8-8-6-6-6-6-5-5-5-5-|
G-3-3-3-3-3-3-3-3-8-8-8-8-8-8-8-8-6-6-6-6-5-5-5-5-|
C-3-3-3-3-3-3-3-3-8-8-8-8-8-8-8-8-6-6-6-6-5-5-5-5-|

Guitar 2
D---------------------------------------------------------|
A---------------------------------------------------------|
F---------------------------------13-13-13-13-12-12-12-12-|
C-3-3-3-3-3-3-3-3-8-8-8-8-8-8-8-8-x--x--x--x--x--x--x--x--|
G-3-3-3-3-3-3-3-3-8-8-8-8-8-8-8-8-11-11-11-11-10-10-10-10-|
C-3-3-3-3-3-3-3-3-8-8-8-8-8-8-8-8-------------------------|

Guitar 1
D-----------------------------------------------------------------|
A-----------------------------------------------------------------|
F-----------------------------------------------------------------|
C-3-3-3-3-3-3-3-3-8-8-8-8-8-8-8-8-6-6-6-6-6-6-6-6-5-5-5-5-5-5-5-5-|
G-3-3-3-3-3-3-3-3-8-8-8-8-8-8-8-8-6-6-6-6-6-6-6-6-5-5-5-5-5-5-5-5-|
C-3-3-3-3-3-3-3-3-8-8-8-8-8-8-8-8-6-6-6-6-6-6-6-6-5-5-5-5-5-5-5-5-|

Guitar 2
D---------------------------------------------------------|
A---------------------------------------------------------|
F---------------------------------13-13-13-13-13-13-13-13-|
C-3-3-3-3-3-3-3-3-8-8-8-8-8-8-8-8-x--x--x--x--x--x--x--x--|
G-3-3-3-3-3-3-3-3-8-8-8-8-8-8-8-8-11-11-11-11-11-11-11-11-|
C-3-3-3-3-3-3-3-3-8-8-8-8-8-8-8-8-------------------------|

Guitar 2 continued
D-------------------------|
A-------------------------|
F-12-12-12-12-12-12-12-12-|
C-x--x--x--x--x--x--x--x--|
G-10-10-10-10-10-10-10-10-|
C-------------------------|

Verse 2 x2

Guitar 1
D-----------------------------------------------------|
A-----------------------------------------------------|
F-----------------------------------------------------|
C-----------------------9~-3~-6-3-3~-9~-3~-3-6~-3-3-6-|
G-----------------------9~-3~-6-3-3~-9~-3~-3-6~-3-3-6-|
C-----------------------9~-3~-6-3-3~-9~-3~-3-6~-3-3-6-|

Guitar 2
D-------------------------------------------|
A-6-6-6-6-6b-6b-6b-6b--4-4-4-4-4b-4b-4b-4b--|
F-9-9-9-9-9b-9b-9b-9b--7-7-7-7-7b-7b-7b-7b--|
C-------------------------------------------|
G-------------------------------------------|
C-------------------------------------------|
pm. . .                . . .

Guitar 1 continued
D-----------------------------------------------|
A-6-6-6-6-6b-6b-6b-6b--4b-4b-4b-4b-4b-4b-4b-4b--|
F-9-9-9-9-9b-9b-9b-9b--7b-7b-7b-7b-7b-7b-7b-7b--|
C-----------------------------------------------|
G-----------------------------------------------|
C-----------------------------------------------|

Chorus

Guitar 1
D-------------------------------------------------|
A-------------------------------------------------|
F-------------------------------------------------|
C-3-3-3-3-3-3-3-3-8-8-8-8-8-8-8-8-6-6-6-6-5-5-5-5-|
G-3-3-3-3-3-3-3-3-8-8-8-8-8-8-8-8-6-6-6-6-5-5-5-5-|
C-3-3-3-3-3-3-3-3-8-8-8-8-8-8-8-8-6-6-6-6-5-5-5-5-|

Guitar 2
D---------------------------------------------------------|
A---------------------------------------------------------|
F---------------------------------13-13-13-13-12-12-12-12-|
C-3-3-3-3-3-3-3-3-8-8-8-8-8-8-8-8-x--x--x--x--x--x--x--x--|
G-3-3-3-3-3-3-3-3-8-8-8-8-8-8-8-8-11-11-11-11-10-10-10-10-|
C-3-3-3-3-3-3-3-3-8-8-8-8-8-8-8-8-------------------------|

Guitar 1
D-----------------------------------------------------------------|
A-----------------------------------------------------------------|
F-----------------------------------------------------------------|
C-3-3-3-3-3-3-3-3-8-8-8-8-8-8-8-8-6-6-6-6-6-6-6-6-5-5-5-5-5-5-5-5-|
G-3-3-3-3-3-3-3-3-8-8-8-8-8-8-8-8-6-6-6-6-6-6-6-6-5-5-5-5-5-5-5-5-|
C-3-3-3-3-3-3-3-3-8-8-8-8-8-8-8-8-6-6-6-6-6-6-6-6-5-5-5-5-5-5-5-5-|

Guitar 2
D---------------------------------------------------------|
A---------------------------------------------------------|
F---------------------------------13-13-13-13-13-13-13-13-|
C-3-3-3-3-3-3-3-3-8-8-8-8-8-8-8-8-x--x--x--x--x--x--x--x--|
G-3-3-3-3-3-3-3-3-8-8-8-8-8-8-8-8-11-11-11-11-11-11-11-11-|
C-3-3-3-3-3-3-3-3-8-8-8-8-8-8-8-8-------------------------|
[ Tab from: http://www.guitaretab.com/a/akissforjersey/178797.html ]
Guitar 2 continued
D-------------------------|
A-------------------------|
F-12-12-12-12-12-12-12-12-|
C-x--x--x--x--x--x--x--x--|
G-10-10-10-10-10-10-10-10-|
C-------------------------|

Breakdown

Guitar 1
D-------------------------------------------------------|
A-------------------------------------------------------|
F-------------------------------------------------------|
C-3~-3~-3-3-3~-3~-3~-3-3~-3-3-3-3~-3~-3-3-3~-6~-6-6-6-6-|
G-3~-3~-3-3-3~-3~-3~-3-3~-3-3-3-3~-3~-3-3-3~-6~-6-6-6-6-|
C-3~-3~-3-3-3~-3~-3~-3-3~-3-3-3-3~-3~-3-3-3~-6~-6-6-6-6-|

Guitar 2
D--------------------------------------------------------------|
A--------------------------------------------------------------|
F-6~----6------6~------6~-------6~----6------7/13~-13-13-13-13-|
C-6~-3~-6-3-3~-6~-3~-3-6~-3-3-3-6~-3~-6-3-3~-x/x---x--x--x--x--|
G-4~-3~-4-3-3~-4~-3~-3-4~-3-3-3-4~-3~-4-3-3~-5/11~-11-11-11-11-|
C----3~---3-3~----3~-3----3-3-3----3~---3-3~-------------------|

Guitar 1
D---------------------------------------------------------------|
A---------------------------------------------------------------|
F---------------------------------------------------------------|
C-3~-3~-3-3-3~-3~-3~-3-3~-3-3-3-3~-3~-3-3-3~-6~-6-6-6-6-6-6-6-6-|
G-3~-3~-3-3-3~-3~-3~-3-3~-3-3-3-3~-3~-3-3-3~-6~-6-6-6-6-6-6-6-6-|
C-3~-3~-3-3-3~-3~-3~-3-3~-3-3-3-3~-3~-3-3-3~-6~-6-6-6-6-6-6-6-6-|

Guitar 1 continued
D-----------------|
A-----------------|
F-----------------|
C-5-5-5-5-5-5-5-5-|
G-5-5-5-5-5-5-5-5-|
C-5-5-5-5-5-5-5-5-|

Guitar 2
D--------------------------------------------------------------------------|
A--------------------------------------------------------------------------|
F-6~----6------6~------6~-------6~----6------7/13~-13-13-13-13-13-13-13-13-|
C-6~-3~-6-3-3~-6~-3~-3-6~-3-3-3-6~-3~-6-3-3~-x/x---x--x--x--x--x--x--x--x--|
G-4~-3~-4-3-3~-4~-3~-3-4~-3-3-3-4~-3~-4-3-3~-5/11~-11-11-11-11-11-11-11-11-|
C----3~---3-3~----3~-3----3-3-3----3~---3-3~-------------------------------|

Guitar 2 continued
D-------------------------|
A-------------------------|
F-12-12-12-12-12-12-12-12-|
C-x--x--x--x--x--x--x--x--|
G-10-10-10-10-10-10-10-10-|
C-------------------------|

Interlude

Guitar 1
D---------------------------------------------------------------------|
A---------------------------------------------------------------------|
F---------------------------------------------------------------------|
C-3-3-3-3-3-3-3-3--8-8-8-8-8-8-8-8--2-2-2-2-2-2-2-2--3-3-3-3-3-3-3-3--| x2
G-3-3-3-3-3-3-3-3--8-8-8-8-8-8-8-8--2-2-2-2-2-2-2-2--3-3-3-3-3-3-3-3--|
C-3-3-3-3-3-3-3-3--8-8-8-8-8-8-8-8--2-2-2-2-2-2-2-2--3-3-3-3-3-3-3-3--|

Guitar 2
D----------------------------------------------------------------|
A----------------------------------------------------------------|
F----------------------------------------------------------------|
C-----6~-5~~-1~--------10~-8~~---8---6~-5~~-1~-------------------|
G----------------------------------------------------------------|
C-3~~-----------0h3/8~---------8---3-------------3-3-3-3-3-3-3-3-|

Guitar 2
D-----------------------------------------------------|
A-----------------------------------------------------|
F-----------------------------------------------------|
C-----6~-5~~-1--------10~-8~~---8---6~-5~-1-----------|
G-----------------------------------------------------|
C-3~~----------0h3/8~---------8---3-----------3-3-3-3-|

Chorus x2

Guitar 1
D-------------------------------------------------|
A-------------------------------------------------|
F-------------------------------------------------|
C-3-3-3-3-3-3-3-3-8-8-8-8-8-8-8-8-6-6-6-6-5-5-5-5-|
G-3-3-3-3-3-3-3-3-8-8-8-8-8-8-8-8-6-6-6-6-5-5-5-5-|
C-3-3-3-3-3-3-3-3-8-8-8-8-8-8-8-8-6-6-6-6-5-5-5-5-|

Guitar 2
D---------------------------------------------------------|
A---------------------------------------------------------|
F---------------------------------13-13-13-13-12-12-12-12-|
C-3-3-3-3-3-3-3-3-8-8-8-8-8-8-8-8-x--x--x--x--x--x--x--x--|
G-3-3-3-3-3-3-3-3-8-8-8-8-8-8-8-8-11-11-11-11-10-10-10-10-|
C-3-3-3-3-3-3-3-3-8-8-8-8-8-8-8-8-------------------------|

Guitar 1
D-----------------------------------------------------------------|
A-----------------------------------------------------------------|
F-----------------------------------------------------------------|
C-3-3-3-3-3-3-3-3-8-8-8-8-8-8-8-8-6-6-6-6-6-6-6-6-5-5-5-5-5-5-5-5-|
G-3-3-3-3-3-3-3-3-8-8-8-8-8-8-8-8-6-6-6-6-6-6-6-6-5-5-5-5-5-5-5-5-|
C-3-3-3-3-3-3-3-3-8-8-8-8-8-8-8-8-6-6-6-6-6-6-6-6-5-5-5-5-5-5-5-5-|

Guitar 2
D---------------------------------------------------------|
A---------------------------------------------------------|
F---------------------------------13-13-13-13-13-13-13-13-|
C-3-3-3-3-3-3-3-3-8-8-8-8-8-8-8-8-x--x--x--x--x--x--x--x--|
G-3-3-3-3-3-3-3-3-8-8-8-8-8-8-8-8-11-11-11-11-11-11-11-11-|
C-3-3-3-3-3-3-3-3-8-8-8-8-8-8-8-8-------------------------|

Guitar 2 continued
D-------------------------|
A-------------------------|
F-12-12-12-12-12-12-12-12-|
C-x--x--x--x--x--x--x--x--|
G-10-10-10-10-10-10-10-10-|
C-------------------------|

Outro

Guitar 1
D---------------------------------------------------------------|
A---------------------------------------------------------------|
F---------------------------------------------------------------|
C-3~-3~-3-3-3~-3~-3~-3-3~-3-3-3-3~-3~-3-3-3~-6~-6-6-6-6-6-6-6-6-|
G-3~-3~-3-3-3~-3~-3~-3-3~-3-3-3-3~-3~-3-3-3~-6~-6-6-6-6-6-6-6-6-|
C-3~-3~-3-3-3~-3~-3~-3-3~-3-3-3-3~-3~-3-3-3~-6~-6-6-6-6-6-6-6-6-|

Guitar 1 continued
D-----------------|
A-----------------|
F-----------------|
C-5-5-5-5-5-5-5-5-|
G-5-5-5-5-5-5-5-5-|
C-5-5-5-5-5-5-5-5-|

Guitar 2
D--------------------------------------------------------------------------|
A--------------------------------------------------------------------------|
F-6~----6------6~------6~-------6~----6------7/13~-13-13-13-13-13-13-13-13-|
C-6~-3~-6-3-3~-6~-3~-3-6~-3-3-3-6~-3~-6-3-3~-x/x---x--x--x--x--x--x--x--x--|
G-4~-3~-4-3-3~-4~-3~-3-4~-3-3-3-4~-3~-4-3-3~-5/11~-11-11-11-11-11-11-11-11-|
C----3~---3-3~----3~-3----3-3-3----3~---3-3~-------------------------------|

Guitar 2 continued
D-------------------------|
A-------------------------|
F-12-12-12-12-12-12-12-12-|
C-x--x--x--x--x--x--x--x--|
G-10-10-10-10-10-10-10-10-|
C-------------------------|

Tab Legend
h  -  hammer-on
p  -  pull-off
/  -  slide up
\  -  slide down
ps/-  pickslide up
ps\-  pickslide down
~  -  let ring
pm.-  palm mute
b  -  bend
r  -  return from bend
*  -  harmonic

Well there you go, I hope you liked because there is a lot more where that came from! If
have any complaints about the tab please keep it down to Earth. I would happily fix any
made on my tab(s), just donít go yelling, ďThis tab sucks,Ē or ďThat part is all 
wrong.Ē Ido the best I can, and if that is not enough, then sorry. Please email me about how I
and also... ROCK OUT!!!!
Related for The Flood tab