Guitaretab - guitar tabs
Song name
# A B C D E F G H I J K L M N O P Q R S T U V W X Y Z

Akissforjersey - The Fire tab

----------------------------------------------------------------------------
                             Akissforjersey
                                The Fire
----------------------------------------------------------------------------

Hello, ok... I donít have much to say as you can see so I will just say that The
Fire isnít Akissforjerseyís easiest song, but it isnít that hard that you canít
learn it, (Easy to learn, hard to remember.) Enjoy!

Username: dkm817 (same on X box live)
Email: guitardrums@rockfan.com

Guitar 1 Rhythmic (C# G# C# F# A# D#)
Guitar 2 Lead     (C# G# C# F# A# D#)

Intro (A shallow sound, kind of mysterious; reverb)

Guitar 1
D#------------------------------------------------------------------|
A#------------------------------------------------------------------|
F#---7-7-7-7-7-7-7-7-7-7-7-7-7-7-7---5-5-5-5-5-5-5-5-5-5-5-5-5-5-5--|
C#---7-7-7-7-7-7-7-7-7-7-7-7-7-7-7---5-5-5-5-5-5-5-5-5-5-5-5-5-5-5--| x2
G#-5-5-5-5-5-5-5-5-5-5-5-5-5-5-5-5-3-3-3-3-3-3-3-3-3-3-3-3-3-3-3-3--|
C#------------------------------------------------------------------|

Guitar 2
D#-------------------------------------------                   |
A#-------------------------------------------                   |
F#-------11-11-----11-11-----11-11-----11-11-                   |
C#---7-7-------7-7-------7-7-------7-7-------                   |
G#-5-----------------------------------------                   |
C#-------------------------------------------                   |
                                                                |
Guitar 2                                                        |
D#------------------------------------------                    |--x2
A#-----8---10---10---11-11-11-11-10-10-10-10                    |
F#------------------------------------------                    |
C#-7-7---7----7----7------------------------                    |
G#------------------------------------------                    |
C#------------------------------------------                    |
                                                                |
Guitar 2                                                        |
D#---------------------------------------------------------------|
A#---------------------------------------------------------------|
F#-----7--7-------------5--5-------------2~---2h3---3---3---2----|
C#-3--------3----------------3-----------------------------------|
G#---0--------0-1-0-1-0--------0-1-0-1-0----5-----0---5---5---5p0|
C#---------------------------------------------------------------|

Guitar 1
D#----------------------------------------|
A#----------------------------------------|
F#---7-7-7-7-7-7-7-7-7-7-7-7-7-7-7--7~~~~-|
C#---7-7-7-7-7-7-7-7-7-7-7-7-7-7-7--7~~~~-|
G#-5-5-5-5-5-5-5-5-5-5-5-5-5-5-5-5--5~~~~-|
C#----------------------------------------|

Guitar 2
D#------------------------------------------------------------------------|
A#------------------------------------------------------------------------|
F#------------------------------------------------------------------7~~~~-|
C#-----7-7-----7-7-----7-7-----7-7-----7-7-----7-7-----7-7-----7-7--7~~~~-|
G#-5-5-----5-5-----5-5-----5-5-----5-5-----5-5-----5-5-----5-5------5~~~~-|
C#------------------------------------------------------------------------|

Chorus

Guitar 1
D#----------------------------------------------------------------|
A#----------------------------------------------------------------|
F#--------------5~~~~~~~~-5~-----3-3-3-3-3-3-3-3-5-5-5-5-5-5-5-5--|
C#-0~~~~~~~~-0~-5~~~~~~~~-5~-x-x-3-3-3-3-3-3-3-3-5-5-5-5-5-5-5-5--| x2
G#-0~~~~~~~~-0~-3~~~~~~~~-3~-x-x-1-1-1-1-1-1-1-1-3-3-3-3-3-3-3-3--|
C#-0~~~~~~~~-0~--------------x-x----------------------------------|

Guitar 2
D#-13~~------------10-12------------------------                |
A#------10-11-13~~-------13~~-11-13~~-11-10-8h10                |
F#----------------------------------------------                |
C#----------------------------------------------                |
G#----------------------------------------------                |
C#----------------------------------------------                |
                                                                | x2
Guitar 2                                                        |
D#---------------------------8h10~---------------------------8h10|
A#-8h10-----------------8h10-------8h10-----------------8h10-----|
F#------7h9-----5h7-7h9-----------------7h9-----5h7-7h9----------|
C#----------5h7-----------------------------5h7------------------|
G#---------------------------------------------------------------|
C#---------------------------------------------------------------|

Verse
[ Tab from: http://www.guitaretab.com/a/akissforjersey/179779.html ]
Guitar 1
D#-11~~~~~~~~~~~~~--------------------------------------------------|
A#------------------------------------------------------------------|
F#-----------------7-7-7-7-7-7-7-7---5-5-5-5-5-5-5-5-5-5-5-5-5-5-5--|
C#-----------------7-7-7-7-7-7-7-7---5-5-5-5-5-5-5-5-5-5-5-5-5-5-5--| x2
G#-----------------5-5-5-5-5-5-5-5-3-3-3-3-3-3-3-3-3-3-3-3-3-3-3-3--|
C#------------------------------------------------------------------|

Guitar 2
D#-------------------------------------------                   |
A#-------------------------------------------                   |
F#-------11-11-----11-11-----11-11-----11-11-                   |
C#---7-7-------7-7-------7-7-------7-7-------                   |
G#-5-----------------------------------------                   |
C#-------------------------------------------                   |
                                                                |
Guitar 2                                                        |
D#------------------------------------------                    |--x2
A#-----8---10---10---11-11-11-11-10-10-10-10                    |
F#------------------------------------------                    |
C#-7-7---7----7----7------------------------                    |
G#------------------------------------------                    |
C#------------------------------------------                    |
                                                                |
Guitar 2                                                        |
D#---------------------------------------------------------------|
A#---------------------------------------------------------------|
F#-----7--7-------------5--5-------------2~---2h3---3---3---2----|
C#-3--------3----------------3-----------------------------------|
G#---0--------0-1-0-1-0--------0-1-0-1-0----5-----0---5---5---5p0|
C#---------------------------------------------------------------|

Guitar 1
D#----------------------------------------|
A#----------------------------------------|
F#---7-7-7-7-7-7-7-7-7-7-7-7-7-7-7--7~~~~-|
C#---7-7-7-7-7-7-7-7-7-7-7-7-7-7-7--7~~~~-|
G#-5-5-5-5-5-5-5-5-5-5-5-5-5-5-5-5--5~~~~-|
C#----------------------------------------|

Guitar 2
D#------------------------------------------------------------------------|
A#------------------------------------------------------------------------|
F#------------------------------------------------------------------7~~~~-|
C#-----7-7-----7-7-----7-7-----7-7-----7-7-----7-7-----7-7-----7-7--7~~~~-|
G#-5-5-----5-5-----5-5-----5-5-----5-5-----5-5-----5-5-----5-5------5~~~~-|
C#------------------------------------------------------------------------|

Chorus x4

Guitar 1
D#----------------------------------------------------------------|
A#----------------------------------------------------------------|
F#--------------5~~~~~~~~-5~-----3-3-3-3-3-3-3-3-5-5-5-5-5-5-5-5--|
C#-0~~~~~~~~-0~-5~~~~~~~~-5~-x-x-3-3-3-3-3-3-3-3-5-5-5-5-5-5-5-5--| x2
G#-0~~~~~~~~-0~-3~~~~~~~~-3~-x-x-1-1-1-1-1-1-1-1-3-3-3-3-3-3-3-3--|
C#-0~~~~~~~~-0~--------------x-x----------------------------------|

Guitar 2
D#-13~~------------10-12------------------------                |
A#------10-11-13~~-------13~~-11-13~~-11-10-8h10                |
F#----------------------------------------------                |
C#----------------------------------------------                |
G#----------------------------------------------                |
C#----------------------------------------------                |
                                                                | x2
Guitar 2                                                        |
D#---------------------------8h10~---------------------------8h10|
A#-8h10-----------------8h10-------8h10-----------------8h10-----|
F#------7h9-----5h7-7h9-----------------7h9-----5h7-7h9----------|
C#----------5h7-----------------------------5h7------------------|
G#---------------------------------------------------------------|
C#---------------------------------------------------------------|

Outro

Guitar 1
D#---------------------------------------|
A#---------------------------------------|
F#---------------------------------------|
C#-0~~~~~~~~~~~~~~~~~~~~~~~~~~~~~~~~~~~~~|
G#-0~~~~~~~~~~~~~~~~~~~~~~~~~~~~~~~~~~~~~|
C#-0~~~~~~~~~~~~~~~~~~~~~~~~~~~~~~~~~~~~~|

Tab Legend
h  -  hammer-on
p  -  pull-off
/  -  slide up
\  -  slide down
ps/-  pickslide up
ps\-  pickslide down
~  -  let ring
pm.-  palm mute
b  -  bend
r  -  return from bend
*  -  harmonic

Well, that was the fastest tab I have ever made. But it is still a fun song to play. If 
are any mistakes on this tab, please tell me or correct. Email me! And one last 
OUT!!!!
Related for The Fire tab