Guitaretab - guitar tabs
Song name
# A B C D E F G H I J K L M N O P Q R S T U V W X Y Z

Akissforjersey - Faces tab

----------------------------------------------------------------------------
                             Akissforjersey
                                 Faces
----------------------------------------------------------------------------

Here, is an interesting song from Akissforjersey. Why? Because Guitar 2 part has some
riffs; with all of the pull offís and string movements. Itís cool. And to add along for a
beat, the Guitar 1 part has some awesome riffs too. It is one of my personal favorites, 
not the best. To be honest, I have no idea about the parts - like the problem I had
the tab Choose Your Fate by Story of the Year. I donít know what part is the Chorus or 
or Breakdowns. So I put it in order, like usual, and you just play through it. Enjoy!

Username: dkm817 (same on X box live)
Email: guitardrums@rockfan.com

Guitar 1 Rhythmic (C# G# C# F# A# D#)
Guitar 2 Lead     (C# G# C# F# A# D#)

Intro

Guitar 1
D#--------------------------------------------------------------------|
A#--------------------------------------------------------------------|
F#--------------------------------------------------------------------|
C#-7-7-7-7-7-7-7-7--5-5-5-5-5-5-5-5--0-0-0-0-0-0-0-0--5-5-5-5-5-5-5-5-|
G#-7-7-7-7-7-7-7-7--5-5-5-5-5-5-5-5--0-0-0-0-0-0-0-0--5-5-5-5-5-5-5-5-|
C#-7-7-7-7-7-7-7-7--5-5-5-5-5-5-5-5--0-0-0-0-0-0-0-0--5-5-5-5-5-5-5-5-|

Guitar 2
D#--------------------------------------------------------|
A#--------------------------------------------------------|
F#-9-9-9-9-9-9-9-9--------------5~------------------------|
C#-x-x-x-x-x-x-x-x----7-----5h7----7----------------------| x2
G#-7-7-7-7-7-7-7-7--5---5h7-----------5--5-5-7-7-7-7-7-7--|
C#--------------------------------------------------------|

Verse 1

Guitar 1
D#------------------------------------------------------|
A#------------------------------------------------------|
F#------------------------------------------------------|
C#-7~~\0-5-7-7-7~~\0-5-7--7--7~~\0-5-7-7-7~~\0--x-x-x-x-|
G#-7~~\0-5-7-7-7~~\0-5-7--7--7~~\0-5-7-7-7~~\0--x-x-x-x-|
C#-7~~\0-5-7-7-7~~\0-5-7--7--7~~\0-5-7-7-7~~\0--x-x-x-x-|

Guitar 2
D#-------------12------------------------------|
A#-8/10--10h13----5p0--12h13p12-0-0-8-10-10p0--|
F#---------------------------------------------|
C#---------------------------------------------| x2
G#---------------------------------------------|
C#---------------------------------------------|

Guitar 1
D#-----------------------------------------------------------------------|
A#-----------------------------------------------------------------------|
F#-9--9-9--2-2-2--5--5-5-5-5-5-4-4-4--9--9-9--2-2-2--5--5-5-5-5-5-4-4-4--|
C#-x--x-x--x-x-x--x--x-x-x-x-x-x-x-x--x--x-x--x-x-x--x--x-x-x-x-x-x-x-x--| x4
G#-7--7-7--0-0-0--3--3-3-3-3-3-2-2-2--7--7-7--0-0-0--3--3-3-3-3-3-2-2-2--|
C#-7--7-7--0-0-0--3--3-3-3-3-3-2-2-2--7--7-7--0-0-0--3--3-3-3-3-3-2-2-2--|

Guitar 2
D#-------8-10-10-12---------------------8-10-10-12--------------|
A#-10/12------------13-12-8-------10/12------------13-12-8------|
F#--------------------------9-9~---------------------------9-9~-|
C#--------------------------------------------------------------|
G#--------------------------------------------------------------|
C#--------------------------------------------------------------|

Guitar 2
D#-------------12------------------------------|
A#-8/10--10h13----5p0--12h13p12-0-0-8-10-10p0--|
F#---------------------------------------------|
C#---------------------------------------------| x2
G#---------------------------------------------|
C#---------------------------------------------|

Verse 2

Guitar 1
D#-------------------------------------------------|
A#-------------------------------------------------|
F#-------------------------------------------------|
C#------------7---7--7-7--7-7--7---7--7-7--7-7-7\0-|
G#------------7---7--7-7--7-7--7---7--7-7--7-7-7\0-|
C#------------7---7--7-7--7-7--7---7--7-7--7-7-7\0-|

Guitar 1 continued
D#----------------------------------|
A#----------------------------------|
F#----------------------------------|
C#-3~~-3~-3-3--3-3--2~~-2~-2-2--2-2-|
G#-3~~-3~-3-3--3-3--2~~-2~-2-2--2-2-|
C#-3~~-3~-3-3--3-3--2~~-2~-2-2--2-2-|

Guitar 2
D#-12--12-12--5-5-5--8--8-8-8-8-8-7-7-7--|
A#-x---x--x---x-x-x--x--x-x-x-x-x-x-x-x--|
F#-9---9--9---2-2-2--5--5-5-5-5-5-4-4-4--|
C#---------------------------------------| x9
G#---------------------------------------|
C#---------------------------------------|

Guitar 1
D#------------------------------------------------------------------------|
A#------------------------------------------------------------------------|
F#------------------------------------------------------------------------|
C#-7~~-7~-7-7--7-7--7~~-7~-7-7--7-7-7\0--3~~-3~-3-3--3-3--2~~-2~-2-2--2-2-|
G#-7~~-7~-7-7--7-7--7~~-7~-7-7--7-7-7\0--3~~-3~-3-3--3-3--2~~-2~-2-2--2-2-|
C#-7~~-7~-7-7--7-7--7~~-7~-7-7--7-7-7\0--3~~-3~-3-3--3-3--2~~-2~-2-2--2-2-|

Pre Chorus

Guitar 1
D#---------------------------------------------------------|
A#---------------------------------------------------------|
F#---------------------------------------------------------|
C#-7-7-7-7-7-7-7-7--0---0---0---0---0---0---0---0---0---0--|
F#-7-7-7-7-7-7-7-7--0---0---0---0---0---0---0---0---0---0--|
C#-7-7-7-7-7-7-7-7--0---0---0---0---0---0---0---0---0---0--|

Guitar 2
D#----------------------------------------------------------|
A#----------------------------------------------------------|
F#-9-9-9-9-9-9-9-9------------------------------------------|
C#-x-x-x-x-x-x-x-x----2---2---2---2---2---2---2---2---2---2-|
G#-7-7-7-7-7-7-7-7----2---2---2---2---2---2---2---2---2---2-|
C#--------------------2---2---2---2---2---2---2---2---2---2-|

Chorus

Guitar 1
D#-------------------------------------------------------------------------|
A#-------------------------------------------------------------------------|
F#-------------------------------------------------------------------------|
C#-7-7-7-7-7-7-7-7--0---0---0---0---0---0---0---0---0---0--7-7-7-7-7-7-7-7-|
G#-7-7-7-7-7-7-7-7--0---0---0---0---0---0---0---0---0---0--7-7-7-7-7-7-7-7-|
C#-7-7-7-7-7-7-7-7--0---0---0---0---0---0---0---0---0---0--7-7-7-7-7-7-7-7-|

Guitar 2
D#-----------------------------------------------------------------|
A#---------5p0-0h3-0h1-----0h1-------------5p0-0h3-0h1-----0h1-----|
F#-2p0-5p0-------------0-0-----4p0-2p0-5p0-------------0-0-----4p0-|
C#-----------------------------------------------------------------|
G#-----------------------------------------------------------------|
C#-----------------------------------------------------------------|

Guitar 2
D#------------------------------------------|
A#------------------------------------------|
F#------------------------------------------|
C#----2---2---2---2---2---2---2---2---2---2-|
G#----2---2---2---2---2---2---2---2---2---2-|
C#----2---2---2---2---2---2---2---2---2---2-|
[ Tab from: http://www.guitaretab.com/a/akissforjersey/180055.html ]
Guitar 2
D#-----------------------------------------------------------------|
A#---------5p0-0h3-0h1-----0h1-------------5p0-0h3-0h1-----0h1-----|
F#-2p0-5p0-------------0-0-----4p0-2p0-5p0-------------0-0-----4p0-|
C#-----------------------------------------------------------------|
G#-----------------------------------------------------------------|
C#-----------------------------------------------------------------|

Verse 3

Guitar 1
D#-----------------------------------------------------------------------|
A#-----------------------------------------------------------------------|
F#-9--9-9--2-2-2--5--5-5-5-5-5-4-4-4--9--9-9--2-2-2--5--5-5-5-5-5-4-4-4--|
C#-x--x-x--x-x-x--x--x-x-x-x-x-x-x-x--x--x-x--x-x-x--x--x-x-x-x-x-x-x-x--| x4
G#-7--7-7--0-0-0--3--3-3-3-3-3-2-2-2--7--7-7--0-0-0--3--3-3-3-3-3-2-2-2--|
C#-7--7-7--0-0-0--3--3-3-3-3-3-2-2-2--7--7-7--0-0-0--3--3-3-3-3-3-2-2-2--|

Guitar 2
D#-------8-10-10-12---------------------8-10-10-12--------------|
A#-10/12------------13-12-8-------10/12------------13-12-8------|
F#--------------------------9-9~---------------------------9-9~-|
C#--------------------------------------------------------------|
G#--------------------------------------------------------------|
C#--------------------------------------------------------------|

Guitar 2
D#-------------12------------------------------|
A#-8/10--10h13----5p0--12h13p12-0-0-8-10-10p0--|
F#---------------------------------------------|
C#---------------------------------------------| x2
G#---------------------------------------------|
C#---------------------------------------------|

Breakdown 1

Guitar 1
D#------------------------------------------------|
A#------------------------------------------------|
F#------------------------------------------------|
C#-0~~~~~~-0~~~~~~-2~~~~~~-2~-2~-2~-2~-2~-2~-2~-2-|
G#-0~~~~~~-0~~~~~~-2~~~~~~-2~-2~-2~-2~-2~-2~-2~-2-|
C#-0~~~~~~-0~~~~~~-2~~~~~~-2~-2~-2~-2~-2~-2~-2~-2-|

Guitar 2
D#-------------------------------------------|
A#-------------------------------------------|
F#-10-10-10-10-10-10-10-10-10-10-10-10-10-10-|
C#-x--x--x--x--x--x--x--x--x--x--x--x--x--x--|
G#-8--8--8--8--8--8--8--8--8--8--8--8--8--8--|
C#-------------------------------------------|

Guitar 2
D#-------------------------------------------|
A#-------------------------------------------|
F#-9-9-9-9-9-9-9-9-9~-9~-9~-9~-9~-9~-9~-9~-9-|
C#-x-x-x-x-x-x-x-x-x--x--x--x--x--x--x--x--x-|
G#-7-7-7-7-7-7-7-7-7~-7~-7~-7~-7~-7~-7~-7~-7-|
C#-------------------------------------------|

Breakdown 2

Guitar 1
D#------------------------------------------------------------------|
A#------------------------------------------------------------------|
F#---------------------------------5-5-5-5-5-5-5-5------------------|
C#-3-3-3-3-3-3-3-3-7-7-7-7-7-7-7-7-5-5-5-5-5-5-5-5-2-2-2-2-2-2-2-2--| x4
G#-3-3-3-3-3-3-3-3-7-7-7-7-7-7-7-7-3-3-3-3-3-3-3-3-2-2-2-2-2-2-2-2--|
C#-3-3-3-3-3-3-3-3-7-7-7-7-7-7-7-7-----------------2-2-2-2-2-2-2-2--|

Guitar 2
D#----------------------------------------       |
A#----------------------------------------       |
F#-10-10-10-10-10-10-10-10-9-9-9-9-9-9-9-9       |
C#-x--x--x--x--x--x--x--x--x-x-x-x-x-x-x-x       |
G#-8--8--8--8--8--8--8--8--7-7-7-7-7-7-7-7       |
C#----------------------------------------       |
                                                 |--x2
Guitar 2                                         |
D#------------------------------------------------|
A#------------------------------------------------|
F#-14-14-14-14-14-14-14-14-13-13-13-13-13-13-13-13|
C#-x--x--x--x--x--x--x--x--x--x--x--x--x--x--x--x-|
G#-12-12-12-12-12-12-12-12-11-11-11-11-11-11-11-11|
C#------------------------------------------------|

Guitar 2
D#-------------------------------------------------------------------------|
A#-------------------------------------------------------------------------|
F#-10-10-10-10-10-10-10-10-9-9-9-9-7-7-5-5-4-4-4-4-5-5-5-5-9-9-9-9-9-9-9-9-|
C#-------------------------------------------------------------------------|
G#-------------------------------------------------------------------------|
C#-------------------------------------------------------------------------|

Outro

Guitar 1
D#-------------------------------------------|
A#-------------------------------------------|
F#-------------------------------------------|
C#-------------------------------------------|
G#-------------------------------------------|
C#-------------------------------------------|

Guitar 2
D#-------------12-----------------------------|
A#-8/10--10h13----5p0--12h13p12-0-0-8-10-10p0-|
F#--------------------------------------------|
C#--------------------------------------------|
G#--------------------------------------------|
C#--------------------------------------------|

Guitar 1
D#-----------------------------------------------------------------------|
A#-----------------------------------------------------------------------|
F#-9--9-9--2-2-2--5--5-5-5-5-5-4-4-4--9--9-9--2-2-2--5--5-5-5-5-5-4-4-4--|
C#-x--x-x--x-x-x--x--x-x-x-x-x-x-x-x--x--x-x--x-x-x--x--x-x-x-x-x-x-x-x--| x4
G#-7--7-7--0-0-0--3--3-3-3-3-3-2-2-2--7--7-7--0-0-0--3--3-3-3-3-3-2-2-2--|
C#-7--7-7--0-0-0--3--3-3-3-3-3-2-2-2--7--7-7--0-0-0--3--3-3-3-3-3-2-2-2--|

Guitar 2
D#-------8-10-10-12---------------------8-10-10-12--------------|
A#-10/12------------13-12-8-------10/12------------13-12-8------|
F#--------------------------9-9~---------------------------9-9~-|
C#--------------------------------------------------------------|
G#--------------------------------------------------------------|
C#--------------------------------------------------------------|

Guitar 2
D#-------------12------------------------------|
A#-8/10--10h13----5p0--12h13p12-0-0-8-10-10p0--|
F#---------------------------------------------|
C#---------------------------------------------| x2
G#---------------------------------------------|
C#---------------------------------------------|

Guitar 1
D#--------------------------------------------------|
A#--------------------------------------------------|
F#--------------------------------------------------|
C#--------------------------------------------7~\0~-|
G#--------------------------------------------7~\0~-|
C#--------------------------------------------7~\0~-|

Guitar 2
D#-------------12-----------------------------------|
A#-8/10--10h13----5p0--12h13p12-0-0-8-10-10p0-------|
F#--------------------------------------------------|
C#--------------------------------------------7~\0~-|
G#--------------------------------------------7~\0~-|
C#--------------------------------------------7~\0~-|

Tab Legend
h  -  hammer-on
p  -  pull-off
/  -  slide up
\  -  slide down
ps/-  pickslide up
ps\-  pickslide down
~  -  let ring
pm.-  palm mute
b  -  bend
r  -  return from bend
*  -  harmonic

There you go! Hopefully you get the ordering, because I just couldnít notice the
of the song. If you figured it out just let me know, or just make your own, better 
of
tab. Oh and one last thing... ROCK OUT!!!!
Related for Faces tab