Guitaretab - guitar tabs
Song name
# A B C D E F G H I J K L M N O P Q R S T U V W X Y Z

Akissforjersey - Salus Suas Extanderealas Concedit tab

----------------------------------------------------------------------------
                             Akissforjersey
                    Salus Suas Exanderealas Concedit
----------------------------------------------------------------------------

Hello, Salus Suas Exanderealas Concedit is probably my second favorite song from the
Victims because it is so heart-felt, even if it has the longest name on the album. I love
last part of the song, (the Chorus). I think this song has to do about how a loss of a 
one or something like that can strengthen your relationship with God. I really donít
what the title of the song stands for, but I think it is Latin. Enjoy!

Username: dkm817 (same on X box live)
Email: guitardrums@rockfan.com

Guitar 1 Rhythmic (C# G# C# F# A# D#)
Guitar 2 Lead     (C# G# C# F# A# D#)

Verse 1

Guitar 1 (Somber like effect)
D#--------------------------------------------------------|
A#--------------------------------------------------------|
F#------7~-7-6~-----------------7~-7-6~----------7h9-9h11-|
C#------------------------------------------9h11----------|
G#-5~-5---------7h9~~~~~~~-5~-5---------7h9---------------|
C#--------------------------------------------------------|

Guitar 1 continued
D#------------------------------------------------|
A#------------------------------------------------|
F#-11~~-11~~-11--11-------7~~~~~~~-9/11~-9~-7p6---|
C#-9~~~-9~~~-9---9---x-x--5~~~~~~~--------------7-|
G#-9~~~-9~~~-9---9---x-x--5~~~~~~~----------------|
C#-9~~~-9~~~-9---9---x-x--5~~~~~~~----------------|

Guitar 1
D#--------------------------------------------------------|
A#--------------------------------------------------------|
F#------7~-7-6~-----------------7~-7-6~----------7h9-9h11-|
C#------------------------------------------9h11----------|
G#-5~-5---------7h9~~~~~~~-5~-5---------7h9---------------|
C#--------------------------------------------------------|

Guitar 1 continued
D#--------------------------------------------------|
A#--------------------------------------------------|
F#-11~~-11~~-11--11-------7~~~~~~~-9/11~-9~-7p6-----|
C#-9~~~-9~~~-9---9---x-x--5~~~~~~~--------------7h9-|
G#-9~~~-9~~~-9---9---x-x--5~~~~~~~------------------|
C#-9~~~-9~~~-9---9---x-x--5~~~~~~~------------------|

Verse 2

Guitar 1
D#----------------------------------------------------------|
A#----------------------------------------------------------|
F#-------------------------------------------------2~~~~~~~-|
C#-12-12~-11~-11~-7~~~~~~~-7/9-12-12~-11~-11~-7~-9-4~~~~~~~-|
G#-9--9~~-9~~-9~~-5~~~~~~~-7/9-9--9~~-9~~-9~~-5~-5-x--------|
C#-9--9~~-9~~-9~~-5~~~~~~~-7/9-9--9~~-9~~-9~~-5~-5-4~~~~~~~-|

Guitar 1
D#---------------------------------------------------------------------------|
A#---------------------------------------------------------------------------|
F#-------------------------------------------------2~~~~~~~-2-2~-2-2-2-2-2-2-|
C#-12-12~-11~-11~-7~~~~~~~-7/9-12-12~-11~-11~-7~-9-4~~~~~~~-4-4~-4-4-4-4-4-4-|
G#-9--9~~-9~~-9~~-5~~~~~~~-7/9-9--9~~-9~~-9~~-5~-5-x--------x-x--x-x-x-x-x-x-|
C#-9--9~~-9~~-9~~-5~~~~~~~-7/9-9--9~~-9~~-9~~-5~-5-4~~~~~~~-4-4~-4-4-4-4-4-4-|

Verse 3

Guitar 1
D#--------------------------------------------------------|
A#--------------------------------------------------------|
F#------7~---6~-----------------7~---6~----------7h9-9h11-|
C#------------------------------------------9h11----------|
G#-5~-5----5----7h9~~~~~~~-5~-5----5----7h9---------------|
C#--------------------------------------------------------|

Guitar 1 continued
D#------------------------------------------------|
A#------------------------------------------------|
F#-11~~-11~~-11--11-------7~~~~~~~-9/11~-9~-7p6---|
C#-9~~~-9~~~-9---9---x-x--5~~~~~~~--------------7-|
G#-9~~~-9~~~-9---9---x-x--5~~~~~~~----------------|
C#-9~~~-9~~~-9---9---x-x--5~~~~~~~----------------|
[ Tab from: http://www.guitaretab.com/a/akissforjersey/180288.html ]
Guitar 2 (Reverb)
D#------------------10-10-10-----------------------------10-10-10--14-14-14-|
A#-10-10-10--7-7-7------------10-10-10--10-10-10--7-7-7---------------------|
F#--------------------------------------------------------------------------|
C#--------------------------------------------------------------------------|
G#--------------------------------------------------------------------------|
C#--------------------------------------------------------------------------|

Guitar 1
D#--------------------------------------------------------|
A#--------------------------------------------------------|
F#------7~---6~-----------------7~---6~----------7h9-9h11-|
C#------------------------------------------9h11----------|
G#-5~-5----5----7h9~~~~~~~-5~-5----5----7h9---------------|
C#--------------------------------------------------------|

Guitar 1 continued
D#--------------------------------------------------|
A#--------------------------------------------------|
F#-11~~-11~~-11--11-------7~~~~~~~-9/11~-9~-7p6-----|
C#-9~~~-9~~~-9---9---x-x--5~~~~~~~--------------7h9-|
G#-9~~~-9~~~-9---9---x-x--5~~~~~~~------------------|
C#-9~~~-9~~~-9---9---x-x--5~~~~~~~------------------|

Guitar 2
D#------------------10-10-10-----------------------------10-10-10--14-14-14-|
A#-10-10-10--7-7-7------------10-10-10--10-10-10--7-7-7---------------------|
F#--------------------------------------------------------------------------|
C#--------------------------------------------------------------------------|
G#--------------------------------------------------------------------------|
C#--------------------------------------------------------------------------|

Pre Chorus

Guitar 1
D#----------------------------------------------------------|
A#----------------------------------------------------------|
F#-------------------------------------------------2~~~~~~~-|
C#-12-12~-11~-11~-7~~~~~~~-7/9-12-12~-11~-11~-7~-9-4~~~~~~~-|
G#-9--9~~-9~~-9~~-5~~~~~~~-7/9-9--9~~-9~~-9~~-5~-5-x--------|
C#-9--9~~-9~~-9~~-5~~~~~~~-7/9-9--9~~-9~~-9~~-5~-5-4~~~~~~~-|

Guitar 2
D#-19-19-19--17-17-17--10~~~~~~~-19-19-19--17-17-17--10~~~~~~~-|
A#-------------------------------------------------------------|
F#-------------------------------------------------------------|
C#-------------------------------------------------------------|
G#-------------------------------------------------------------|
C#-------------------------------------------------------------|

Guitar 1
D#---------------------------------------------------------------------------|
A#---------------------------------------------------------------------------|
F#-------------------------------------------------2~~~~~~~-2-2~-2-2-2-2-2-2-|
C#-12-12~-11~-11~-7~~~~~~~-7/9-12-12~-11~-11~-7~-9-4~~~~~~~-4-4~-4-4-4-4-4-4-|
G#-9--9~~-9~~-9~~-5~~~~~~~-7/9-9--9~~-9~~-9~~-5~-5-x--------x-x--x-x-x-x-x-x-|
C#-9--9~~-9~~-9~~-5~~~~~~~-7/9-9--9~~-9~~-9~~-5~-5-4~~~~~~~-4-4~-4-4-4-4-4-4-|

Guitar 2
D#-19-19-19--17-17-17--10~~~~~~~-19-19-19--17-17-17--10~~~-14-14-14-14-|
A#---------------------------------------------------------------------|
F#---------------------------------------------------------------------|
C#---------------------------------------------------------------------|
G#---------------------------------------------------------------------|
C#---------------------------------------------------------------------|

Chorus

Guitar 1 (Distortion)
D#------------------------------------------------------------------|
A#------------------------------------------------------------------|
F#-7-7-7-7-7-7-7-7--------------------------------------------------|
C#-7-7-7-7-7-7-7-7-7-7-7-7-7-7-7-7-5-5-5-5-5-5-5-5-0-0-0-0-0-0-0-0--| x5
G#-5-5-5-5-5-5-5-5-7-7-7-7-7-7-7-7-5-5-5-5-5-5-5-5-0-0-0-0-0-0-0-0--|
C#-----------------7-7-7-7-7-7-7-7-5-5-5-5-5-5-5-5-0-0-0-0-0-0-0-0--|

Guitar 2 (Distortion)
D#------------------------------------------------------------------|
A#------------------------------------------------------------------|
F#-7-7-7-7-7-7-7-7-----------------------------------------6-6-6-6--|
C#-7-7-7-7-7-7-7-7-7-7-7-7-7-7-7-7-5-5-5-5-5-5-5-5-0-0-0-0-6-6-6-6--| x5
G#-5-5-5-5-5-5-5-5-7-7-7-7-7-7-7-7-5-5-5-5-5-5-5-5-0-0-0-0-4-4-4-4--|
C#-----------------7-7-7-7-7-7-7-7-5-5-5-5-5-5-5-5-0-0-0-0----------|

Tab Legend
h  -  hammer-on
p  -  pull-off
/  -  slide up
\  -  slide down
ps/-  pickslide up
ps\-  pickslide down
~  -  let ring
pm.-  palm mute
b  -  bend
r  -  return from bend
*  -  harmonic

Well there you go, fast tab but hard to find out on guitar. Still, itís an awesome song
I canít get out of my head. If there is anything wrong with this tab just let me know,
make your version of it. Please email! And one last thing...ROCK OUT!!!!
Related for Salus Suas Extanderealas Concedit tab