Guitaretab - guitar tabs
Song name
# A B C D E F G H I J K L M N O P Q R S T U V W X Y Z

Akissforjersey - A Tree And Its Fruit tab

----------------------------------------------------------------------------
                             Akissforjersey
                          A Tree and Its Fruit
----------------------------------------------------------------------------

Ok, so to start off, this isnít really a guitar song. It is a religious song that is 
in the Bible; Matthew. But I donít know the exact part of Matthew. Just read the Bible, and 
will find out! That is why I love this song. Maybe not for playing, but defiantly 
for the spirit. Enjoy!

Username: dkm817 (same on X box live)
Email: guitardrums@rockfan.com

Guitar 1 Rhythmic (C# G# C# F# A# D#) Distortion
Guitar 2 Lead     (C# G# C# F# A# D#) Echo effect... I am going to put out the exact 
statistics to this part because I donít want to make this the easiest tab in the world.

System - Digitech RP350 Modeling Guitar Processor, hopefully if you donít have it but 
something similar it takes the same things.

Pickup - off
Wah    - off
Comp   - off
Dist   - off
Amp A  - on (45JTM, GRN412, AMP GAIN 80, ---, ---, AMP LVL 65)
EQ A   - on (SCOOP, BASS 0, 2200HZ, MIDRNG 3, TREBLE 3, PRESNC 0)
Gate   - on (GATE, THRSH 30, ATTACK 0, RELEASE 50, ATTEN 99, ---)
Fx     - off
Delay  - on (DIGDLY, 600MS, REPEAT 50, DUKTHR 50, DUKLVL 0, DLYLVL 50)
Reverb - off

Intro

Guitar 2 (You could just do this the whole time)
D#------------------------------------------------------------------|
A#------------------------------------------------------------------|
F#----0~-0-2~~~~~~----0~-0-2~~~~~~----0~-0-3~~~~~~----0~-0-3~~~~~~--|
C#------------------------------------------------------------------| x4
G#------------------------------------------------------------------|
C#-0~--------------0~--------------0~--------------0~---------------|

Guitar 2
D#---------------------------------|
A#---------------------------------|
F#----0~-0-2~~~~~~----0~-0-2~~~~~~-|
C#---------------------------------|
G#---------------------------------|
C#-0~--------------0~--------------|

Pre Chorus
[ Tab from: http://www.guitaretab.com/a/akissforjersey/184271.html ]
Guitar 1
D#-----------------------------------------------------------------|
A#-----------------------------------------------------------------|
F#---------------------------------5-5-5-5-5-5-5-5-----------------|
C#-3-3-3-3-3-3-3-3-3-3-3-3-3-3-3-3-5-5-5-5-5-5-5-5-3-3-3-3-3-3-3-3-|
G#-3-3-3-3-3-3-3-3-3-3-3-3-3-3-3-3-3-3-3-3-3-3-3-3-3-3-3-3-3-3-3-3-|
C#-3-3-3-3-3-3-3-3-3-3-3-3-3-3-3-3-----------------3-3-3-3-3-3-3-3-|
Pm . . . . . . . . . . . . . . . . . . . . . . . . . . . . . . . .

Guitar 2
D#-----------------------------------------------------------------|
A#-----------------------------------------------------------------|
F#----0~-0-3~~~~~~----0~-0-3~~~~~~----0~-0-2~~~~~~----0~-0-2~~~~~~-|
C#-----------------------------------------------------------------|
G#-----------------------------------------------------------------|
C#-0~--------------0~--------------0~--------------0~--------------|

Chorus

Guitar 1
D#------------------------------------------------------------------|
A#------------------------------------------------------------------|
F#-----------------3-3-3-3-3-3-3-3-5-5-5-5-5-5-5-5------------------|
C#-5-5-5-5-5-5-5-5-3-3-3-3-3-3-3-3-5-5-5-5-5-5-5-5-3-3-3-3-3-3-3-3--| x7
G#-5-5-5-5-5-5-5-5-1-1-1-1-1-1-1-1-3-3-3-3-3-3-3-3-3-3-3-3-3-3-3-3--|
C#-5-5-5-5-5-5-5-5---------------------------------3-3-3-3-3-3-3-3--|
Pm . . . . . . . . . . . . . . . . . . . . . . . . . . . . . . . .

Guitar 2
D#------------------------------------------------------------------|
A#------------------------------------------------------------------|
F#----0~-0-3~~~~~~----0~-0-3~~~~~~----0~-0-2~~~~~~----0~-0-2~~~~~~--|
C#------------------------------------------------------------------| x7
G#------------------------------------------------------------------|
C#-0~--------------0~--------------0~--------------0~---------------|

Outro

Guitar 1
D#------------|
A#------------|
F#------------|
C#-5~~~~~~~~~~
G#-5~~~~~~~~~~
C#-5~~~~~~~~~~

Guitar 2
D#---------------------------------|
A#---------------------------------|
F#----0~-0-3~~~~~~----0~-0-3~~~~~~-|
C#---------------------------------|
G#---------------------------------|
C#-0~--------------0~--------------|

Tab Legend
h  -  hammer-on
p  -  pull-off
/  -  slide up
\  -  slide down
ps/-  pickslide up
ps\-  pickslide down
~  -  let ring
pm.-  palm mute
b  -  bend
r  -  return from bend
*  -  harmonic
x  -  dead note

Well there you go, the fastest tab I ever made. It might not be a song for playing, but 
just like playing it makes me feel like God is making the notes I play. It feels great. 
and one last thing... ROCK OUT!!!!
Related for A Tree And Its Fruit tab