Guitaretab - guitar tabs
Song name
# A B C D E F G H I J K L M N O P Q R S T U V W X Y Z

Akissforjersey - Oh Infamous City tab

----------------------------------------------------------------------------
                              Akissforjersey
                            Oh, Infamous City
----------------------------------------------------------------------------

Hello, this song, I have heard, is the best song of the album. But for some reason I
think of it as the best song. I think Devices is the best, but that is me. I still think it
to be a cool song to play on guitar. The best part of the whole album to me is in this 
though. That would be the intro! It is awesome and really sick if you know the right
Hehe Oh, Infamous City by Akissforjersey; that rhymes! Enjoy!

Username: dkm817 (same on X box live)
Email: guitardrums@rockfan.com

Guitar 1 Rhythmic (C# G# C# F# A# D#)
Guitar 2 Lead     (C# G# C# F# A# D#) (Maybe it is just me, but I think the tuning is
C#. Other people play it in Drop D, but if I do that it sounds too high of pitch for the
0 notes.)

Intro

Guitar 1
D#----------------------------------------------|
A#--------------------6~------------------------|
F#--------------------9~------------------------|
C#-5/12~-0-0-0-0-0-0--x--0-0-0-0-4/8-8~-8~-0-0--| x7
G#-5/12~-0-0-0-0-0-0--8~-0-0-0-0-4/8-8~-8~-0-0--|
C#-5/12~-0-0-0-0-0-0-----0-0-0-0-4/8-8~-8~-0-0--|
Pm       . . . . . .     . . . .           . .

Guitar 2
D#----------------------------------------------|
A#--------------------6~------------------------|
F#--------------------9~------------------------|
C#-5/12~-0-0-0-0-0-0--x--0-0-0-0-4/8-8~-8~-0-0--| x8
G#-5/12~-0-0-0-0-0-0--8~-0-0-0-0-4/8-8~-8~-0-0--|
C#-5/12~-0-0-0-0-0-0-----0-0-0-0-4/8-8~-8~-0-0--|
Pm       . . . . . .     . . . .           . .

Guitar 1
D#----------------------------------------------------------|
A#----------------------------------------------------------|
F#----------------------------------------------------------|
C#-0~~~~~~~-0-0--0-0--0--0-0--0-0--0--0-0--0-0--0--0-0--0-0-|
G#-0~~~~~~~-0-0--0-0--0--0-0--0-0--0--0-0--0-0--0--0-0--0-0-|
C#-0~~~~~~~-0-0--0-0--0--0-0--0-0--0--0-0--0-0--0--0-0--0-0-|

Guitar 2
D#----------------------------------------------------------|
A#----------6-6--6-6--6--6-6--6-6--6--6-6--6-6--6--6-6--6-6-|
F#----------9-9--9-9--9--9-9--9-9--9--9-9--9-9--9--9-9--9-9-|
C#-0~~~~~~~-------------------------------------------------|
G#-0~~~~~~~-------------------------------------------------|
C#-0~~~~~~~-------------------------------------------------|

Verse 1

Guitar 1
D#-------------------------------------------------------|
A#-------------------------------------------------------|
F#-------------------------------------------------------|
C#-0-0-0~-0---0---0----------0-0-0~-0--------------------| x2
G#-0-0-0~-0---0---0----------0-0-0~-0--------------------|
C#-0-0-0~-0---0---0--8-8-8-8-0-0-0~-0---7-8-7-5-5-7-5-3--|

Guitar 2
D#-13/17\13-------------------------12------|
A#------------------------------------------|
F#----------17~-14~-10~----10----10---------|
C#----------------------12----12-------12-12|
G#------------------------------------------|
C#------------------------------------------|
                                           |-- x2
Guitar 2                                   |
D#-13/17\13-------------------15---------- |
A#----------------------17-15------------- |
F#----------17~-14~-10~----------12-14-14~ |
C#---------------------------------------- |
G#---------------------------------------- |
C#---------------------------------------- |

Guitar 1
D#-------------------------------------|
A#-------------------------------------|
F#-------------------------------------|
C#-8-8-8-8-8-8-8-8-10-10-10-10-7-7-7-7-|
G#-8-8-8-8-8-8-8-8-10-10-10-10-7-7-7-7-|
C#-8-8-8-8-8-8-8-8-10-10-10-10-7-7-7-7-|

Guitar 2 (This was a hard part, so this could be a bit off.)
D#-----------------------13~-------------------------------------------------|
A#-------------13h15p13~-13~-15p13~-13-15p13~--------------------------------|
F#-------12h14--------------------------------------12h14-12h14-9~-9-9-9-9-9-|
C#-12h14--------------------------------------12h14-------------x--x-x-x-x-x-|
G#--------------------------------------------------------------7~-7-7-7-7-7-|
C#---------------------------------------------------------------------------|

Breakdown 1

Guitar 1
D#------------------------------------------|
A#-------5---5-5----------------------------|
F#-------8---8-8------------7-7-7-7-7-7-7-7-|
C#-8-7-0---0-------------0--x-x-x-x-x-x-x-x-|
G#-8-7-0---0-------------0--5-5-5-5-5-5-5-5-|
C#-8-7-0---0-----0-5-7-0-0------------------|
Pm     .   .             .

Guitar 2
D#----------------------------------------------------|
A#-------5---5-5--------------------------8p6~~-------|
F#-------8---8-8---------------------7h10-------7h10~-|
C#-8-7-0---0-------------0------7h10------------------|
G#-8-7-0---0-------------0--7h8-----------------------|
C#-8-7-0---0-----0-5-7-0-0----------------------------|
Pm     .   .             .

Guitar 1
D#----------------------------------------------|
A#-------5---5-5--------------------------------|
F#-------8---8-8------------10-10-10-10-6-6-6-6-|
C#-8-7-0---0-------------0--x--x--x--x--x-x-x-x-|
G#-8-7-0---0-------------0--8--8--8--8--4-4-4-4-|
C#-8-7-0---0-----0-5-7-0-0----------------------|
Pm     .   .             .
Guitar 2
D#-------------------------------------------------|
A#-------5---5-5-----------------------------------|
F#-------8---8-8-----------------------7-----------|
C#-8-7-0---0-------------0-------10------7~~-8~-7~-|
G#-8-7-0---0-------------0--7h10----10-------------|
C#-8-7-0---0-----0-5-7-0-0-------------------------|
Pm     .   .             .

Breakdown 2

Guitar 1
D#-----------------------------------------------------------------|
A#-----------------------------------------------------------------|
F#-----------------------------------------------------------------|
C#-0~~~------------------0-0---------------------------7--6--6--6--| x2
G#-0~~~------------------0-0---------------------------7--6--6--6--|
C#-0~~~------------------0-0---------------------------7--6--6--6--|

Guitar 1
D#-----------------------------------------------------------------|
A#-----------------------------------------------------------------|
F#------7-7-7-7-7-7-7-7-------10-10-10-10-10-10-10-10--------------|
C#-0~~~-x-x-x-x-x-x-x-x--0-0--x--x--x--x--x--x--x--x---7--6--6--6--| x2
G#-0~~~-5-5-5-5-5-5-5-5--0-0--8--8--8--8--8--8--8--8---7--6--6--6--|
C#-0~~~------------------0-0---------------------------7--6--6--6--|

Guitar 2
D#-----------------------------------------------------------------|
A#-----------------------------------------------------------------|
F#------7-7-7-7-7-7-7-7-------10-10-10-10-10-10-10-10--------------|
C#-0~~~-7-7-7-7-7-7-7-7--0-0--10-10-10-10-10-10-10-10--7--6--6--6--| x4
G#-0~~~-5-5-5-5-5-5-5-5--0-0--8--8--8--8--8--8--8--8---7--6--6--6--|
C#-0~~~------------------0-0---------------------------7--6--6--6--|

Pre Chorus

Guitar 1
D#-------------------------------------|
A#-------------------------------------|
F#-------------------------------------|
C#-8-8-8-8-8-8-8-8-10-10-10-10-7-7-7-7-|
G#-8-8-8-8-8-8-8-8-10-10-10-10-7-7-7-7-|
C#-8-8-8-8-8-8-8-8-10-10-10-10-7-7-7-7-|

Guitar 2
D#-----------------------13~-------------------------------------------------|
A#-------------13h15p13~-13~-15p13~-13-15p13~--------------------------------|
F#-------12h14--------------------------------------12h14-12h14-9~-9-9-9-9-9-|
C#-12h14--------------------------------------12h14-------------x--x-x-x-x-x-|
G#--------------------------------------------------------------7~-7-7-7-7-7-|
C#---------------------------------------------------------------------------|

Chorus

Guitar 1
D#---------------------------------------------|
A#---------------------------------------------|
F#---------------------------------------------|
C#-8-8-8-8-8-8-8-8-0-0-0-0-x-x-10-10-x-10-10~--| x4
G#-8-8-8-8-8-8-8-8-0-0-0-0-x-x-10-10-x-10-10~--|
C#-8-8-8-8-8-8-8-8-0-0-0-0-x-x-10-10-x-10-10~--|

Guitar 2
D#--------------------------------------------|
A#--------------------------------------------|
F#-7-7-7-7-7-7-7-7-5-5-5-5-x-x-10-10-x-10-9~--|
C#-x-x-x-x-x-x-x-x-x-x-x-x-x-x-x--x--x-x--x---| x4
G#-5-5-5-5-5-5-5-5-3-3-3-3-x-x-8--8--x-8--7~--|
C#--------------------------------------------|

Breakdown 3

Guitar 1 & 2
D#-----------------------------------------------|
A#-----------------------------------------------|
F#-----------------------------------------------|
C#-0-0---0-0----0-0---0-0--0-0---0-0---0-0---0-0-|
G#-0-0---0-0----0-0---0-0--0-0---0-0---0-0---0-0-|
C#-0-0---0-0----0-0---0-0--0-0---0-0---0-0---0-0-|
Pm . .   . .    . .   . .  . .   . .   . .   . .
[ Tab from: http://www.guitaretab.com/a/akissforjersey/184273.html ]
Guitar 1
D#---------------------------------------------|
A#---------------------------------------------|
F#---------------------------------------------|
C#-0-0---0-0----0-0---0-0--0-0---0-0---8~~~~~~-|
G#-0-0---0-0----0-0---0-0--0-0---0-0---8~~~~~~-|
C#-0-0---0-0----0-0---0-0--0-0---0-0---8~~~~~~-|

Guitar 2
D#---------------------------------------------|
A#---------------------------------------------|
F#-------------------------------------5~~~~~~-|
C#-0-0---0-0----0-0---0-0--0-0---0-0---x-------|
G#-0-0---0-0----0-0---0-0--0-0---0-0---3~~~~~~-|
C#-0-0---0-0----0-0---0-0--0-0---0-0-----------|

Guitar 1
D#-----------------------------------------------|
A#-----------------------------------------------|
F#-----------------------------------------------|
C#-0-0---0-0----0-0---0-0--0-0---0-0---0-0---0-0-|
G#-0-0---0-0----0-0---0-0--0-0---0-0---0-0---0-0-|
C#-0-0---0-0----0-0---0-0--0-0---0-0---0-0---0-0-|
Pm . .   . .    . .   . .  . .   . .   . .   . .

Guitar 1
D#---------------------------------------------|
A#---------------------------------------------|
F#---------------------------------------------|
C#-0-0---0-0----0-0---0-0--0-0---0-0---8~~~~~~-|
G#-0-0---0-0----0-0---0-0--0-0---0-0---8~~~~~~-|
C#-0-0---0-0----0-0---0-0--0-0---0-0---8~~~~~~-|

Guitar 2 this is hard to read probably, but I tried my best to make it easy
D#--------------------------------------- |
A#--------------------------------------- |
F#-----------10~-----------10~-------10~- |
C#-12~-12h14-----12~-12h14-----12h14----- |
G#--------------------------------------- |
C#--------------------------------------- |
                                          |-- x4
Guitar 2 continued                        |
D#----------------------------------------|
A#-----13----13------------13----13-------|
F#-----------------10~-----------------10~|
C#-12~----12----12-----12~----12----12----|
G#----------------------------------------|
C#----------------------------------------|

Interlude 1

Guitar 1
D#----------------------------------------------------------------------|
A#----------------------------------------------------------------------|
F#----------------------------------------------------------------------|
C#-0~~~~~~~-0~~~-0-0----------0~~~-0-0-------------0~~~-0-0-------------|
G#-0~~~~~~~-0~~~-0-0----------0~~~-0-0-------------0~~~-0-0-------------|
C#-0~~~~~~~-0~~~-0-0----8-8-8-0~~~-0-0----10-10-10-0~~~-0-0----12-12-12-|

Guitar 1 continued
D#----------------------|
A#----------------------|
F#----------------------|
C#-0~~~-0-0-------------|
G#-0~~~-0-0-------------|
C#-0~~~-0-0----14-15-15-|

Guitar 2
D#--------------------------------------- |
A#--------------------------------------- |
F#-----------10~-----------10~-------10~- |
C#-12~-12h14-----12~-12h14-----12h14----- |
G#--------------------------------------- |
C#--------------------------------------- |
                                          |-- x4
Guitar 2 continued                        |
D#----------------------------------------|
A#-----13----13------------13----13-------|
F#-----------------10~-----------------10~|
C#-12~----12----12-----12~----12----12----|
G#----------------------------------------|
C#----------------------------------------|

Interlude 2

Guitar 1
D#-------------------------------------------------------------------------|
A#-------------------------------------------------------------------------|
F#-10-10-10-10-10-10-10-10-12-12-12-12-12-12-12-12-14-14-14-14-14-14-14-14-|
C#-x--x--x--x--x--x--x--x--x--x--x--x--x--x--x--x--x--x--x--x--x--x--x--x--|
G#-8--8--8--8--8--8--8--8--10-10-10-10-10-10-10-10-12-12-12-12-12-12-12-12-|
C#-------------------------------------------------------------------------|

Guitar 1 continued
D#-------------------------|
A#-------------------------|
F#-15-15-15-15-17-17-19-19-|
C#-x--x--x--x--x--x--x--x--|
G#-13-13-13-13-15-15-17-17-|
C#-------------------------|

Guitar 1
D#-------------------------------------------------------------------------|
A#-------------------------------------------------------------------------|
F#-10-10-10-10-12-12-12-12-14-14-14-14-15-15-15-15-17-17-17-17-19-19-19-19-|
C#-x--x--x--x--x--x--x--x--x--x--x--x--x--x--x--x--x--x--x--x--x--x--x--x--|
G#-8--8--8--8--10-10-10-10-12-12-12-12-13-13-13-13-15-15-15-15-17-17-17-17-|
C#-------------------------------------------------------------------------|

Guitar 1 continued
D#------------------------------------|
A#------------------------------------|
F#-21-21-21-21-22-22-22-22------------|
C#-x--x--x--x--x--x--x--x-------------|
G#-19-19-19-19-20-20-20-20------------|
C#------------------------------------|

Guitar 2
D#-13/17\13-----------------------------------|
A#----------------------------------15h18p17--|
F#----------15~-12~-----------15h17-----------|
C#------------------14~-14h17-----------------| x8
G#--------------------------------------------|
C#--------------------------------------------|

Bridge x2

Guitar 1
D#-------------------------------------------------------------------------|
A#-------------------------------------------------------------------------|
F#-------------------------------------------------------------------------|
C#-8-8-8-8-8-8-8-8-7-7-7-7-8-8-10-10-0-0-------------0-0------------0-0----|
G#-8-8-8-8-8-8-8-8-7-7-7-7-8-8-10-10-0-0-------------0-0------------0-0----|
C#-8-8-8-8-8-8-8-8-7-7-7-7-8-8-10-10-0-0-------------0-0------------0-0----|

Guitar 1 continued
D#--------------------------------|
A#--------------------------------|
F#--------------------------------|
C#-0-0---------0-0---------0-0----|
G#-0-0---------0-0---------0-0----|
C#-0-0---------0-0---------0-0----|

Guitar 2
D#--------------------------------------------------------------------------|
A#--------------------------------------------------------------------------|
F#------------------------------------------10-10-10-10-----9-9-9-9-9-9-9-9-|
C#-8-8-8-8-8-8-8-8-7-7-7-7-8--8--10-10--0-0-------------0-0-----------------|
G#-8-8-8-8-8-8-8-8-8-8-8-8-10-10-12-12--0-0-------------0-0-----------------|
C#-8-8-8-8-8-8-8-8-7-7-7-7-8--8--10-10--0-0-------------0-0-----------------|

Guitar 2
D#---------------------------------|
A#---------------------------------|
F#-----7-7-7-7-----5-5-5-5-5-5-5-5-|
C#-0-0---------0-0-----------------|
G#-0-0---------0-0-----------------|
C#-0-0---------0-0-----------------|

Breakdown 4

Guitar 1
D#------------------------------------------------------|
A#------------------------------------------------------|
F#------------------------------------------------------|
C#-8~-7~---8~-7~----0-0--0-0-8~-7~---8~-7~----0-0--0-0--| x4
G#-8~-7~---8~-7~----0-0--0-0-8~-7~---8~-7~----0-0--0-0--|
C#-8~-7~---8~-7~----0-0--0-0-8~-7~---8~-7~----0-0--0-0--|
Pm                  . .  . .                  . .  . .

Guitar 2
D#--------------------------|
A#--------------------------|
F#--------------------------|
C#8~-7~---8~-7~----0-0--0-0-|
G#8~-7~---8~-7~----0-0--0-0-|
C#8~-7~---8~-7~----0-0--0-0-|
Pm                 . .  . .

Guitar 2 continued
D#------------------------------------------------------------------|
A#------------------------------------------------------------------|
F#-----------------2-------------------------------2----------------|
C#-------------3h5---0-------------------------3h5---0--------------| x2
G#---------5p3---------5p3-----------------5p3---------5p3----------|
C#-0h3h5h7-----------------7p5-7p0-0h3h5h7-----------------7p5-7p0--|

Outro

Guitar 1
D#---------------------------------------------------|
A#---------------------------------------------------|
F#---------------------------------------------------|
C#-0-0--0-0---0-0--0-0------0-0--0-0---0-0--0-0------|
G#-0-0--0-0---0-0--0-0------0-0--0-0---0-0--0-0------|
C#-0-0--0-0---0-0--0-0------0-0--0-0---0-0--0-0------|
Pm . .  . .   . .  . .      . .  . .   . .  . .

Guitar 2 continued
D#------------------------------------------------------------------|
A#------------------------------------------------------------------|
F#-----------------2-------------------------------2----------------|
C#-------------3h5---0-------------------------3h5---0--------------| x2
G#---------5p3---------5p3-----------------5p3---------5p3----------|
C#-0h3h5h7-----------------7p5-7p0-0h3h5h7-----------------7p5-7p0--|

Tab Legend
h  -  hammer-on
p  -  pull-off
/  -  slide up
\  -  slide down
ps/-  pickslide up
ps\-  pickslide down
~  -  let ring
pm.-  palm mute
b  -  bend
r  -  return from bend
*  -  harmonic
x  -  dead note

Well there you go! It is a pretty cool song, but it isnít the best to me. I donít find
I the Chorus unlike the other songs. Please Email me about the tab, and if there is
wrong with it just tell me. Oh yeah and one last thing... ROCK OUT!!!!
Related for Oh Infamous City tab