Song name
# A B C D E F G H I J K L M N O P Q R S T U V W X Y Z

Akissforjersey - The Lungs That Impress Eternal tab

Guitar I
Lightly strum tword the end of the chord.
e|----9-9-9-9~---9-9-9-9~--7-7-7-7~--7-7-7-7~----------------| *repeat
B|---7~-------7~----------5---------5------------------------|
G|--8~-------8~----------6---------6-------------------------|
D|-----------------------------------------------------------|
A|-----------------------------------------------------------|
E|-----------------------------------------------------------|
Guitar II
e|-------------------------------------------|9/12~--12~-----| *repeat
B|-------------------------------------------|---------12~---|
G|-------------------------------------------|-----------10~-|
D|-------------------------------------------|---------------|
A|-------------------------------------------|---------------|
E|-------------------------------------------|---------------|

pretty simple, im working currently on "Leave that man be" and "Candi" message me if you 
want me to tab any other songs.
Tap to rate this tab
 
# A B C D E F G H I J K L M N O P Q R S T U V W X Y Z