Song name
# A B C D E F G H I J K L M N O P Q R S T U V W X Y Z

Akito Nakamura - Nocturne Of Shadow tab

Nocturne Of Shadow 
The legend Of Zelda Ocarina of Time


I tabbed this from sheet music so it should be right.

e|-5--7--7------7--5--1--|
b|----------3------------|
g|-----------------------|
d|-----------------------| x2
a|-----------------------|
e|-----------------------|


e|-3--1--1----|4--2--2-----4--2--1----|
b|----------1-|---------2-------------|
g|------------|-----------------------|
d|------------|-----------------------|
a|------------|-----------------------|
e|------------|-----------------------|

* you could end with an F cord in stead of using the first fret.
the F chord I use is:

e|--1--|
b|--1--|
g|--2--|
d|--3--|
a|--3--|
e|--1--|
Tap to rate this tab
 
# A B C D E F G H I J K L M N O P Q R S T U V W X Y Z