Song name
# A B C D E F G H I J K L M N O P Q R S T U V W X Y Z

Akon - Hypnotized tab

Hypnotized by Plies ft. Akon

This is how I play it acoustically. In the real song you would just play the intro over 
over, with variations, but I switch it up to chords so I can rap along.

**CAPO 5**

INTRO x2

"Hey what's happenin' homie..."

    Dm7        A7    A#/F

a|--------------------0---------------|
e|---1h3-1------3-----1---------------|
c|--0-----------1-----2--0h2-0h2------|
G|-2-----------0-----3-----------0h2--|
D|0-----------2-----3-----------------|
A|-----------0-----1------------------|

    Dm7        A7    Dm  C  A#

a|-------------------------------------|
e|---1h3-1------3-----5--3--0h1--0h1p0-|
c|--0-----------1-----5--4--2----------|
G|-2-----------0------7--5--3---3------|
D|0-----------2----(0)-----------------|
A|-----------0-------------------------|


Here is where the intro stops and the DJ scratches it up. I like to mimic that by muting 
the chords 8x fast.

    DU DU DU DU
a|--xx-xx-xx-xx
e|--xx-xx-xx-xx
c|--xx-xx-xx-xx
G|--xx-xx-xx-xx
D|--xx-xx-xx-xx
A|--xx-xx-xx-xx


Now comes the main part of the song ("It's two oclock..."). The same intro guitar riff 
repeated throughout, but I like to just play the chords to the beat of the bass. The 
should be down, down/up, down.


CHORDS (I posted the real names. The chord pattern names are Am7, E7, F/C)

    Dm7     A7      A#/F

a|---0---|---0---|---0---|
e|---1---|---3---|---1---|
c|---0---|---1---|---2---|
G|---2---|---0---|---3---|
D|---0---|---2---|---3---|
A|-------|---0---|---1---|

Dm7
It's two oclock in the mo'nin'

A7
I'm yiked up and I'm horny

A#/F
All I need now is some moanin'

A#/F
That p***y got me zoanin'

The rest of the lyrics get pretty dirty. Look 'em up :)


Tabbed by DJ Fabes
Tap to rate this tab
 
# A B C D E F G H I J K L M N O P Q R S T U V W X Y Z