Guitaretab - guitar tabs
Song name
# A B C D E F G H I J K L M N O P Q R S T U V W X Y Z

Akon - Sweetest Girl tab

Wyclef and Akon  Sweetest Girl (Dollar Bill)
Tabbed and arranged by: Alejandro Manzano of Boyce Avenue

www.myspace.com/boyceavenue

video of me playing/singing it:
http://youtube.com/watch?v=_KBXmzTrcpY

Tuning: F A# D# G# C D#

x = mute
^ = hammer on or pull off

Intro:
-0---0---0---0---0---0---0---0-|
-0---3---0---0---0---3---0---0-|
-0---2---0---0---0---2---0---0-|
-2---0---2---0---2---0---2---0-|
-2---0---3---2---2---0---3---2-|
-0-----------3---0-----------3-|

Verse 1 and 2:
-0---0---0---0-|
-8---7---5---0-|
-9---0---0---4-|
-9---7---5---5-| (slight palm mute)
-7---5---3---5-|
-0-----------3-|

Chorus 1:
-0---0---0---0---0---0---0---0-|
-0---3---0---0---0---3---0---0-|
-0---2---0---0---0---2---0---0-|
-2---0---2---0---2---0---2---0-|
-2---0---3---2---2---0---3---2-|
-0-----------3---0-----------3-|

Solo: (slight palm mute throughout)
------------------------------------------|
------------------------------------------|
-------7^9--9--9--7--------------0-0--0-0-|
---7^9------0--0--0--7^9-9-9-9-7---0--0-0-|
------------0--------x-------------x------|
-0-------------------8-------------3------|
[ Tab from: http://www.guitaretab.com/a/akon/165505.html ]
-----------------------------------------------------------------|
-----------------------------------------------------------------|
-----0^2-2^4-4-4-4-2-0-0^2-2-24^2^0-2^4--0--0-0-----0---0---0---|
-0^2-----x-------------0---0---------------x------0^2---0-0---0--|
---------2-------------0-------------------3------------x--------|
---------0----------------------------------------------3---3----|

-----
-----
-2-0-
-0-0-
-x---
-2---

-----------------------------------------------|
-----------------7^8^7-------------------------|
-------7^9-9-9-7-------9^7-------------0-0-0-0-|
---7^9-------0-0-----------7^9-9-9-9-7---0-0-0-|
-------------0-------------x-------------x-----|
-0-------------------------8-------------3-----|

----------------------------------------------------------------|
----------------------------------------------------------------|
-----0^2-2^4-4-4-4-2-0-0^2-2-2--4^2^0-2^4--0--0-0-----0---0---0-|
-0^2-----x-------------0---0---------------x------0^2---0-0---0-|
---------2-------------0-------------------3------------x-------|
---------0----------------------------------------------3---3---|

-----
-----
-2-0-
-0-0-
-x---
-2---

-0---0---0---0---------------0-|
-0---3---0---0---x---x---0---0-|
-0---2---0---0---x---x---0---4-|
-2---0---2---0---9---7---5---5-|
-2---0---3---2---7---5---3---5-|
-0-----------3---------------3-|
Related for Sweetest Girl tab