Song name
# A B C D E F G H I J K L M N O P Q R S T U V W X Y Z

Akon - Hypnotized tab

Howdy! I'm Mark Lester Reyes, and this is my first tab.
This is my version of Hypnotized by Akon Ft. Plies, Hope you'll like it.XD

I think it's 90% correct.
If you're having problems with the timings, you'll need to listen to it carefully.
Enjoy.:D

~INTRO~

e|---x------------------------10~-----x-------------------------|
b|---------8h10-8~------------10~-------------3h5~--3h5--3h5----|
g|-------7------------------x---------------4----------------4~-|
d|-----9------------------7---------------5---------------------|
a|---7------------------9---------------3-----------------------|
E|---x----------------7---------------x-------------------------|


e|---x-------------------------10~---12---10---7\8~---|
b|---------8h10-8~-------------10~---12---10---7\8~---|
g|-------7-------------------x------------------------|
d|-----9-------------------7--------------------------|
a|---7-------------------9----------------------------|
E|---x-----------------7------------------------------|



h-hammer
p-pull-out
/-slide up/left
\-slide down/right
.-palm mute
*-harmonic
~-let it ring




Any corrections? Add me up! 
facebook/ym.~ apple.ketchup@yahoo.com

-tang!online~
Tap to rate this tab
# A B C D E F G H I J K L M N O P Q R S T U V W X Y Z