Song name
# A B C D E F G H I J K L M N O P Q R S T U V W X Y Z

Akon - Dont Matter tab

e|---0---0---------------|    -0-0-----------------------------------|
b|-2---0---2-0-0-----0---|    -----2-2-0-0-0---2-0-----0-2-3-2-0-----|
g|---------------2-2---2-|    ---------------2-----2-2-----------2---|
d|-----------------------| X2 ---------------------------------------| X2
a|-----------------------|    ---------------------------------------|
e|-----------------------|    ---------------------------------------|


here it's:
couse i got you
e|--------------|-----0-0-0---2-0---------------------------|
b|-----0--------|-2-2-------2-----2-0-----0-2-3-2-2-0-------|
g|---2---2------|---------------------2-2-------------2-----|
d|-2------------|-------------------------------------------|
a|--------------|-------------------------------------------|
e|--------------|-------------------------------------------|

e|---------------------------------------------------------|
b|-------------------------2-------------------------------|
g|-2-2---2---2-2---2---2-2-----2-2-2---2-2-2---2-2------2--|
d|-----2---------2------------------------------------2----|
a|---------------------------------------------------------|
e|---------------------------------------------------------|
Tap to rate this tab
 
# A B C D E F G H I J K L M N O P Q R S T U V W X Y Z