Akon - Lonly tab

e------5--2--3--5-----5--2--3--5--0--3--3--5--7--5---14b---------|
B--3b--------------2b--------------------------------------------|
G----------------------------------------------------------------|
D----------------------------------------------------------------|
A----------------------------------------------------------------|
E----------------------------------------------------------------|

e------5--2--3--5-----5--2--3--5--0--3--3--5--7--5---14b---------|
B--3b--------------2b--------------------------------------------|
G----------------------------------------------------------------|
D----------------------------------------------------------------|
A----------------------------------------------------------------|
E----------------------------------------------------------------|
Tap to rate this tab
 
# A B C D E F G H I J K L M N O P Q R S T U V W X Y Z